Good People

Jack Johnson

e----------------------------------------------------|

B----------------------------------9--9s10--9--7--7--|
G--------9-9b10-r9p7--7------------------------7--7--|
D--------------------9—9-----------------------------|
A----------------------------------------------------|
E--7--7--------------------9—9-----------------------|
e-----------------------------------------------------|
B----------------------------------7--7-----7---------|
G--------9-9b10-r9p7-----7----------------9---9--7----|
D-------------------9-------------------------------9-|
A-----------------------------------------------------|
E--7--7--------------------9--9-----------------------|
e--------------0-------4-------2--|
B------4-------0-------5-------2--|
G------4-------1-------6-------3--|
D------4-------2-------6-------4--|
A--2-2---------2---4-4---------4--|
E----------0-0-------------2-2----|

 BEC#mF#
   You win it's your show now, So what's it going to be?
 BEC#mF#
   cause people will tune in, How many train wrecks do we need to see?
 BEC#mF#
   Before we lose touch, And we thought this was low
 BEC#m
   Well it's bad, getting worse....

 F#BEC#m
 Where'd all the good people go?                
 F#BEC#m
I've been changing channels and I don't see them on the tv shows     
 F#BEC#m
 Where'd all the good people go?                
 F#BEC#mF#
We've got heaps and heaps of what we sow                     

 BE
They got this and that with a rattle a tat
 C#mF#
Testing, one, two, man whatcha gonna do
 BE
Bad news misused, got too much to lose
 C#mF#
  Give me some truth now, who's side are we on
 BEC#mF#
Whatever you say, Turn on the boob tube, I'm in the mood to obey
 BEC#m
So lead me astray, And by the way now...

 F#BEC#m
 Where'd all the good people go?                
 F#BEC#m
I've been changing channels and I don't see them on the tv shows     
 F#BEC#m
 Where'd all the good people go?                

 F#BEC#mF#
We've got heaps and heaps of what we sow                     

Bridge (rake)
e----------------------------------7-----------------|
B----------------------------------7----10--7--------|
G--------9-9b10-r9p7--7-------------------------9----|
D--------------------9—9-----------------------------|
A----------------------------------------------------|
E--7--7--------------------9—9-----------------------|
e------------------------------------------------------------|
B------------------------------------------------------------|
G--------9-9b10-r9p7-----7----------11-10—11-10—11-10—--9----|
D-------------------9----------------------------------------|
A------------------------------------------------------------|
E--7--7-------------------9--9-------------------------------|


Bridge chords
 EBCC#F#F
e---0----7----2----3----4----2----1|
B---0----9----4----5----6----2----1|
G---2----9----4----5----6----3----2|
D---2-or-9----4----5----6----4----3|
A---1----7----2----3----4----4----3|
E---0------------------------2----1|


 EB
     Sitting around feeling far away,
 CC#F#F
         So far away but I can feel the debris, can you feel it?
 EB
     You interrupt me from a friendly conversation
 CC#F#
         To tell me how great it's all going to be
 FEB
         You     might     no-tice some hesitation
 CC#F#
         It's important to you, it's not important to me
 FEB
         But way down by the edge of yo--ur reason
 CC#E
         It's beginning to show,       and all I really want to know is...

 F#BEC#m
 Where'd all the good people go?                
 F#BEC#m
I've been changing channels and I don't see them on the tv shows     
 F#BEC#m
 Where'd all the good people go?                
 F#BEC#mF#
We've got heaps and heaps of what we sow                   (Where'd all the good people go?)

 BE
They got this and that with a rattle a tat
 C#mF#
Testing, one, two, man whatcha gonna do
 BE
Bad news misused, give me some truth
 C#mF#
You got too much to lose,  Whose side are we on
Where'd all the good people go?
 BE
today anyway, Okay whatever you say
 C#mF#
 Wrong and resolute but in the mood to obey
 BEC#mF#
Station to station, desensitizing the nation
Where'd all the good people go?
 B
 Going, going, gone

END

+--------------------------------------------------------------------------+

| This file is the author's own work and represents their interpretation |
| of the song. You may only use this file for private study, scholarship, |
| or research. |
+--------------------------------------------------------------------------+


Ultimate-Guitar.Com © 2005


B C C# C#m E F F#
variations - click chord images
Transpose chords:
Tuning:
Cool service:
View: Size:
A  A  A
Rating:
Layout:
  • Currently 2.5/5 Stars.
  • 1
  • 2
  • 3
  • 4
  • 5
 
Accuracy:
  • Currently 4.5/5 Stars.
  • 1
  • 2
  • 3
  • 4
  • 5
 
click stars to rate
Chordie recommends:
Learn to play guitar with video-based, online guitar lessons at JamPlay.com
Songbook:
Login to add this song to your songbook
Support the artist
Preview/buy this song
MSN Music
Why this non-profit ad?

 
login to add comments/video/corrections