eToCache5 = ""; ?> Imagine by Eva Cassidy - guitar chords, guitar tabs and lyrics - chordie

Imagine

Eva Cassidy

 G#m7242222
 C#7        2
C#7sus4 x 2 2 2 4 2
C# x 2 4 4 4 2
 Bb7464544
 F#7        0
C#2 x 2 4 4 2 2

Intro:

 F#F#maj7/BbBBadd2
|-4-------4-----|---------------|---------------|---------------|
|-5-------5-----|-4-------4-----|-2-------2-----|-2-------------|
|-----4-------4-|-4-------4-----|-2-------2-----|-4-------------|
|---------------|-----2-------2-|-----2-------2-|-----2---------|
|---------------|---------------|-0-------------|-0-------4-5-6-|
|---------------|-4-------------|---------------|---------------|


 F#F#maj7/BbBBadd2
|---------4-----|---------------|---------------|---------------|
|---------5---4-|-4-------4-----|-2-------2-----|-2-------2-----|
|-----4-------4-|-4-------4-----|-2-------2-----|-2h4-----4-----|
|---------------|-----2-------2-|-----2-------2-|-----2-------2-|
|-7-------------|---------------|-0-------------|-0-------------|
|---------------|-4-------------|---------------|---------------|


Then the first verse, picked as per the intro:

 F#F#maj7/BbBBadd2
    Imagine there's no heaven  

 F#F#maj7/BbBBadd2
    It's easy if you try   

 F#F#maj7/BbBBadd2
    No hell     below us   

 F#F#maj7/BbBBadd2
      Above us   only sky  

Then change from picking to strumming:

B* Ebm G#m G#m7
Imagine all the people

 C#7C#sus4C#7
 Living for  today

Use this seuence to join       |---------------|
The first and second verses    |---------------|
                               |---------------|
                               |-----2---------|
                               |-4-------4s6-7-|
                               |---------------|


Play the second verse as previous, first 4 lines picked as per the tab, last 2 lines strummed:

 F#F#maj7/BbBBadd2
    Imagine there's no countries   

 F#F#maj7/BbBBadd2
    It isn't hard to    do   

 F#F#maj7/BbBBadd2
    Nothing to kill or    die for   

 F#F#maj7/BbBBadd2
    And no religion too   

B* Ebm G#m G#m7
Imagine all the people

 C#7C#sus4C#7
 Living life in peace

Pick the next part as follows:

 BBadd2C#F#Bb7
          You may say that        I'm a           dreamer
|-0-------------|-2-------2-----|-4-------4-----|-4-------4-----|
|-2-------2-----|-4-------4-----|-5-------5-----|-4-------4-----|
|---------4-----|-----4-------4-|-----4-------4-|-----5-------5-|
|-----2-------2-|---------------|---------------|---------------|
|-0-------------|-2-------------|-7-------------|---------------|
|---------------|---------------|---------------|-4-------------|


 BBadd2C#F#Bb7
          But I'm not the only    one              
|-0-------------|-2-------2-----|-4-------4-----|-4-------4-----|
|-2-------2-----|-4-------4-----|-5-------5-----|-4-------4-----|
|---------4-----|-----4-------4-|-----4-------4-|-----5-------5-|
|-----2-------2-|---------------|---------------|---------------|
|-0-------------|-2-------------|-7-------------|---------------|
|---------------|---------------|---------------|-4-------------|


 BBadd2C#F#Bb7
      I hope some day      you'll join us          
|-0-------------|-2-------2-----|-4-------4-----|-4-------4-----|
|-2-------2-----|-4-------4-----|-5-------5-----|-4-------4-----|
|---------4-----|-----4-------4-|-----4-------4-|-----5-------5-|
|-----2-------2-|---------------|---------------|---------------|
|-0-------------|-2-------------|-7-------------|---------------|
|---------------|---------------|---------------|-4-------------|


 BBadd2C#F#
          And the world will      live as one
|-0-------------|-2-------2-----|-4-------------|---------------|
|-2-------2-----|-4-------4-----|-5-------------|---------------|
|---------4-----|-----4-------4-|-------------2-|-----2-------2-|
|-----2-------2-|---------------|---------------|---------1-----|
|-0-------------|-2-------------|-7-------2-----|-4-------------|
|---------------|---------------|---------------|---------------|


Then the third verse as previous, first four lines picked as per the tab, last 2 lines strummed:

 F#F#maj7/BbBBadd2
    Imagine no       possessions  

 F#F#maj7/BbBBadd2
    I wonder     if you     can

 F#F#maj7/BbBBadd2
    No need for greed or   hunger   

 F#F#maj7/BbBBadd2
    A brotherhood of    man   

B* Ebm G#m G#m7
Imagine all the people

 C#7C#sus4C#7
 Sharing all of the world

The last part repeats twice, but strummed instead of picked as before. The song is
building up here so for more volume use the second version of "B", and leave out
Badd2. After the "F#7" which joins the two parts, the volume diminishes until you
get to the last two lines which are picked as per the tab:

B* C# F# Bb7
You may say that I'm a dreamer

B* C# F# Bb7
But I'm not the only one

B* C# F# Bb7
I hope some day you'll join us

B* C# F# F#7
And the world will live as one

B* C# F# Bb7
You may say that I'm a dreamer

B* C# F# Bb7
But I'm not the only one

 BBadd2C#F#Bb7
       I hope some day you'll join us   

 BBadd2C#F#
       And the world will live as one

END

+--------------------------------------------------------------------------+

| This file is the author's own work and represents their interpretation |
| of the song. You may only use this file for private study, scholarship, |
| or research. |
+--------------------------------------------------------------------------+


Ultimate-Guitar.Com © 2005


B Badd2 Bb7 C# C#7 F# F#maj7/Bb G#m7
variations - click chord images
Transpose chords:
Tuning:
Cool service:
View: Size:
A  A  A
Rating:
Layout:
  • Currently 0/5 Stars.
  • 1
  • 2
  • 3
  • 4
  • 5
 
Accuracy:
  • Currently 0/5 Stars.
  • 1
  • 2
  • 3
  • 4
  • 5
 
click stars to rate
Chordie recommends:
Learn to play guitar with video-based, online guitar lessons at JamPlay.com
Songbook:
Login to add this song to your songbook
Support the artist
Preview/buy this song
MSN Music
Why this non-profit ad?

 
login to add comments/video/corrections