Chordie logo


   Various Artists


Tabber:Sean Welch AKA Goose
Tuning: Drop D and a half.

Okay, so my first tab(Science, version 2) sucked... But I didn't really know how to
play that well back when I made that... speaking of which, whoever checks this tab,
you can delete science version two also! Back on topic, this is a great song, and the
five star tab is completely right... unfortunately, since System uses a new tuning, I
made a more exact tab taking that into account. Lets get started shall we?


Intro pt 1- Play x2(This is also the chorus!)
Eb-------------------------------------------------|
Bb-------------------------------------------------|
Gb-------------------------------------------------|
Db-0-0-1p0-0-0-1p0-0-0-1p0-0-0-1p0-0-0-1p0-0-0-1p0-|
Ab-0-0-1p0-0-0-1p0-0-0-1p0-0-0-1p0-0-0-1p0-0-0-1p0-|
Db-0-0-1p0-0-0-1p0-0-0-1p0-0-0-1p0-0-0-1p0-0-0-1p0-|
   * *     * *     * *     * *     * *     * *
Eb-------------------|
Bb-------------------|
Gb-------------------|
Db-------------------|
Ab-6-5-3-5-3-1-3-1---|
Db-------------------|

-----------------------------------------------------------------------
Intro pt 2- Play x2
Eb-------------------------------------------------|
Bb-------------------------------------------------|
Gb-------------------------------------------------|
Db-1p0-1p0-1p0-1p0-1p0-1p0-1p0-1p0-1p0-1p0-1p0-1p0-|
Ab-1p0-1p0-1p0-1p0-1p0-1p0-1p0-1p0-1p0-1p0-1p0-1p0-|
Db-1p0-1p0-1p0-1p0-1p0-1p0-1p0-1p0-1p0-1p0-1p0-1p0-|
   * * * * * * * * * * * * * * * * * * * * * * * *
Eb-------------------|
Bb-------------------|
Gb-------------------|
Db-------------------|
Ab-6-5-3-5-3-1-3-1---|
Db-------------------|

-----------------------------------------------------------------------
Verse- Play x2
Eb-------------------------------------------------|
Bb-------------------------------------------------|
Gb-------------------------------------------------|
Db-0-0-0~------------------------------------------|
Ab-0-0-0~------------------------------------------|
Db-0-0-0~------------------------------------------|
   * * *
Eb|----------------------------------------------|
Bb|----------------------------------------------|
Gb|---------------------------------7-7-7--------|
Db|10-9-10-9---7-6-7-6----3-2--3-2—-7-7-7--------|
Ab|-8/7--8/7---5/4-5/4----1/0--1/0--5-5-5--------|
Db|----------------------------------------------|

Chorus x2
Verse x2
Chorus x2


Bridge pt 1- Play x2
Eb|---------------------------------------------|
Bb|---------------------------------------------|
Gb|---------------------------------------------|
Db|---------------------------------------------|
Ab|-656565656565656565656565--6-5-3-5-3-1-3-1---|
Db|---------------------------------------------|
    ************************
Bridge pt 2- Play x3

Eb|--------------------------------------------------------------|
Bb|-----3-----3-----3-----3--6565--------------------------------|
Gb|-----2-----2-----2-----2-------7676---------------------------|
Db|-0-0---0-0---0-0---0-0--------------8787-5-5------------------|
Ab|-0-0---0-0---0-0---0-0--------------------4-4-----------------|
Db|-0-0---0-0---0-0---0-0----------------------------------------|
    * *   * *   * *   * *
After you've played part two three times, play this part two more times.
Eb-------------------------------------------------------|
Bb-6565--------------------------------------------------|
Gb-----7676----------------------------------------------|
Db---------8787-5-5--------------------------------------|
Ab---------------4-4-------------------------------------|
Db-------------------------------------------------------|

Bridge pt 3- Play x3
Eb|-------------------------------------------------------|
Bb|-------------------------------------------------------|
Gb|-------------------------------------------------------|
Db|---------------------------------------------6~--------|
Ab|-8787-10-9-10-9--5454-6565-1-0-1-0-1-0-1-0—5~----------|
Db|-------------------------------------------------------|

Chorus x2
Bridge Pt 2 x2
Chorus x2

Outro- Listen to the song to figure out the strumming, its just an open Db power chord
(palm muted, you can gradually release).

Order
Intro Pt. 1(chorus) x2
Intro Pt. 2 x2
Verse x2
Chorus x2
Verse x2
Bridge Pt. 1 x2
Bridge Pt. 2 x3
Bridge Pt. 3 x3
Chorus x2
Bridge Pt. 3 x2
Chorus x2


Important: The song above is NOT stored on the Chordie server. The original song is hosted at www.ultimate-guitar.com. Chordie works as a search engine and provides on-the-fly formatting. Chordie does not index songs against artists/composers will. To remove this song please click here.

This song is displayed as text-only. Transposing and tuning is only available for chordpro-songs.

Login - add to songbook

Rating click stars to rate

Layout
Accuracy

SHARE PAGE  




You need to log in to post comments