Toxicity

System Of A Down


| Ultimate Guitar Tabs Archive - your #1 source for tabs! | | http://www.ultimate-guitar.com/ | | | | Over 200,000 guitar, guitar pro and bass tabs! Also lessons, news, | | columns and guitar forums! |
Artist: System Of A Down Song: Toxicity
Artist: System Of A Down Song: Toxicity Album: Toxicity Tabbed by: Kim Mikal Torp aka The C@ncerM@n Email: kim_mikal_torp@hotmail.com
Tuning: drop D, one step down (C G C F A D)
Intro: -------------------------------------|-------------------------------------- -------------------------------------|-------------------------------------- ----14----14----14----14----14----14-|----17----17----17----17----17----17-- -12----12----12----12----12----12----|-15----15----15----15----15----15----- -------------------------------------|-------------------------------------- -------------------------------------|--------------------------------------
-------------------------------------|-------------------------------------- -------------------------------------|-------------------------------------- ----14----14----14-15----15-14----14-|----17----19----19-17----17-15----15-- -12----12----12-------12-------12----|-15----15----15-------15-------15----- -------------------------------------|-------------------------------------- -------------------------------------|--------------------------------------
Chorus: ----|------------|------- ----|------------|------- ----|------------|-3--2-- -0--|-3-2-0-0-2--|-3--2-- -0--|-3-2-0-0-2--|-1--0--2x -0--|-3-2-0-0-2--|-------
-----------------|------- -----------------|------- -----------------|-3--2-- -3-2-0-2-0-0-----|-3--2-- -3-2-0-2-0-0--4x-|-1--0-- -3-2-0-2-0-0-----|-------
----|------------|------- ----|------------|------- ----|------------|-3--2-- -0--|-3-2-0-0-2--|-3--2-- -0--|-3-2-0-0-2--|-1--0-- -0--|-3-2-0-0-2--|-------
Verse: -------------------------------------|-------------------------------------- -------------------------------------|-------------------------------------- ----14----14----14----14----14----14-|----17----17----17----17----17----17-- -12----12----12----12----12----12----|-15----15----15----15----15----15----- -------------------------------------|-------------------------------------- -------------------------------------|--------------------------------------
-------------------------------------|-------------------------------------- -------------------------------------|-------------------------------------- ----14----14----14-15----15-14----14-|----17----19----19-17----17-15----15-- -12----12----12-------12-------12----|-15----15----15-------15-------15----- -------------------------------------|-------------------------------------- -------------------------------------|--------------------------------------
-------------------------------------|-------------------------------------- -------------------------------------|-------------------17----------------- ----14----14----14----14----14----14-|----17----19----------------19-------- -12----12----12----12----12----12----|-15----15----15-15----15-15----15-15-- -------------------------------------|-------------------------------------- -------------------------------------|--------------------------------------
-------------------------------------|-------------------------------------- -------------------------------------|-------------------------------------- ----14----14----14-15----15-14----14-|----17----19----19-17----17-15----15-- -12----12----12-------12-------12----|-15----15----15-------15-------15----- -------------------------------------|--------------------------------------2x -------------------------------------|--------------------------------------
Verse (bass) second half: ------------------------|------------------------ ------------------------|------------------------ ------------------------|------------------------ ------------------------|------------------------ ------------------------|------------------------2x -0--0-0--0-0--0--0--2x--|-3--3-3--3-3--3--3--2x--
Chorus: ----|------------|------- ----|------------|------- ----|------------|-3--2-- -0--|-3-2-0-0-2--|-3--2-- -0--|-3-2-0-0-2--|-1--0--2x -0--|-3-2-0-0-2--|-------
-----------------|------- -----------------|------- -----------------|-3--2-- -3-2-0-2-0-0-----|-3--2-- -3-2-0-2-0-0--4x-|-1--0-- -3-2-0-2-0-0-----|-------
----|------------|------- ----|------------|------- ----|------------|-3--2-- -0--|-3-2-0-0-2--|-3--2-- -0--|-3-2-0-0-2--|-1--0-- -0--|-3-2-0-0-2--|-------
Verse: -------------------------------------|-------------------------------------- -------------------------------------|-------------------------------------- ----14----14----14----14----14----14-|----17----17----17----17----17----17-- -12----12----12----12----12----12----|-15----15----15----15----15----15----- -------------------------------------|-------------------------------------- -------------------------------------|--------------------------------------
-------------------------------------|-------------------------------------- -------------------------------------|-------------------------------------- ----14----14----14-15----15-14----14-|----17----19----19-17----17-15----15-- -12----12----12-------12-------12----|-15----15----15-------15-------15-----
-------------------------------------|-------------------------------------- -------------------------------------|--------------------------------------
-------------------------------------|-------------------------------- -------------------------------------|-------------------17----------- ----14----14----14----14----14----14-|----17----19----------------19-- -12----12----12----12----12----12----|-15----15----15-15----15-15----- -------------------------------------|-------------------------------- -------------------------------------|--------------------------------
-------------------------------------|-------------------------------------- -------------------------------------|-------------------------------------- ----14----14----14-15----15-14----14-|----17----19----19-17----17-15----15-- -12----12----12-------12-------12----|-15----15----15-------15-------15----- -------------------------------------|--------------------------------------2x -------------------------------------|--------------------------------------
Verse (bass) second half:
------------------------|------------------------ ------------------------|------------------------ ------------------------|------------------------ ------------------------|------------------------ ------------------------|------------------------2x -0--0-0--0-0--0--0--2x--|-3--3-3--3-3--3--3--2x--
Chorus: ----|------------|------- ----|------------|------- ----|------------|-3--2-- -0--|-3-2-0-0-2--|-3--2-- -0--|-3-2-0-0-2--|-1--0--2x -0--|-3-2-0-0-2--|-------
-----------------|------- -----------------|------- -----------------|-3--2-- -3-2-0-2-0-0-----|-3--2-- -3-2-0-2-0-0--4x-|-1--0-- -3-2-0-2-0-0-----|-------
----|------------|------- ----|------------|------- ----|------------|-3--2-- -0--|-3-2-0-0-2--|-3--2-- -0--|-3-2-0-0-2--|-1--0-- -0--|-3-2-0-0-2--|-------
Interlude: ------------------------------ ------------------------------ ------------------------------ ------------------------------ ------------------------------4x -12--12-12-12-12-15p14p12-14--
Break: --------- --------- --------- -3p2-0-0- -3p2-0-0-8x -3p2-0-0-
--------------------- --------------------- --------------------- -0--0-0-0-0-3p2p0-2-- -0--0-0-0-0-3p2p0-2--4x -0--0-0-0-0-3p2p0-2--
--------- --------- --------- -3p2-0-0- -3p2-0-0-8x -3p2-0-0-
Chorus: ----|------------|------- ----|------------|------- ----|------------|-3--2-- -0--|-3-2-0-0-2--|-3--2-- -0--|-3-2-0-0-2--|-1--0--2x -0--|-3-2-0-0-2--|-------
-----------------|------- -----------------|------- -----------------|-3--2-- -3-2-0-2-0-0-----|-3--2-- -3-2-0-2-0-0--4x-|-1--0-- -3-2-0-2-0-0-----|-------
----|------------|------- ----|------------|------- ----|------------|-3--2-- -0--|-3-2-0-0-2--|-3--2-- -0--|-3-2-0-0-2--|-1--0-- -0--|-3-2-0-0-2--|-------
Break: --------- --------- --------- -3p2-0-0- -3p2-0-0-8x -3p2-0-0-
Outro: --------------------------------------- --------------------------------------- --------------------------------------- -0--0-0-3p2p0-2b--0--0-0-0-0-3p2p0-2b-- -0--0-0-3p2p0-2b--0--0-0-0-0-3p2p0-2b--2x -0--0-0-3p2p0-2b--0--0-0-0-0-3p2p0-2b--
Questions, corrections etc? Mail me. This is my first tab ever, i started 2 play guitar about a month ago (4 real). It was created using an acoustic guitar, my ears, and notepad. Please don't be 2 hard on me...
END
+--------------------------------------------------------------------------+ | This file is the author's own work and represents their interpretation | | of the song. You may only use this file for private study, scholarship, | | or research. | +--------------------------------------------------------------------------+
Ultimate-Guitar.Com © 2005


variations - click chord images
Transpose chords:
Tuning:
Cool service:
View: Size:
A  A  A
Rating:
Layout:
  • Currently 0/5 Stars.
  • 1
  • 2
  • 3
  • 4
  • 5
 
Accuracy:
  • Currently 3/5 Stars.
  • 1
  • 2
  • 3
  • 4
  • 5
 
click stars to rate
Chordie recommends:
Check out these online guitar lessons
Songbook:
Login to add this song to your songbook
Support the artist
Preview/buy this song
MSN Music
Why this non-profit ad?

 
login to add comments/video/corrections