Shes Like Heroin

System Of A Down


| Ultimate Guitar Tabs Archive - your #1 source for tabs! | | http://www.ultimate-guitar.com/ | | | | Over 200,000 guitar, guitar pro and bass tabs! Also lessons, news, | | columns and guitar forums! |
Artist: System Of A Down Song: Shes Like Heroin
This is to follow up on my guitar tab.
TUNING Drop Db (Db Ab Db Gb)
No bass in intro.
Verse
|---------------------------|----------------------------| |---------------------------|----------------------------| |---------------------------|----------------------------| |--10-10-10-10-10-10-10-10--|--10-10-10-10-10-10-10-10---|
|-------------------|--------------------| |-------------------|--------------------| |-------------------|--------------------| |--9-9-9-9-9-9-9-9--|--9-9-9-9-9-9-9-9---|
Chorus
|---------------------------------| |---------------------------------| |---------------------------------| X4 |--9--9-7-9--10-12-10-12-10-9-9---|
Weird bit after bridge (bridge has no bass)
|---------------------------|----------------------------| |---------------------------|----------------------------| |---------------------------|----------------------------| |--10-10-10-10-10-10-10-10--|--10-10-10-10-10-10-10-10---|

|-------------------|--------------------| |-------------------|--------------------| |-------------------|--------------------| |--9-9-9-9-9-9-9-9--|--9-9-9-9-9-9-9-9---| X4
final chorus (if thats what you call it)
|---------------------------|----------------------------| |---------------------------|----------------------------| |---------------------------|----------------------------| |--10-10-10-10-10-10-10-10--|--10-10-10-10-10-10-10-10---|
|-------------------|--------------------| |-------------------|--------------------| |-------------------|--------------------| |--9-9-9-9-9-9-9-9--|--9-9-9-9-9-9-9-9---|
|-------------------|--------------------| |-------------------|--------------------| |-------------------|--------------------| |--7-7-7-7-7-7-7-7--|--7-7-7-7-7-7-7-7---|
|-------------------|--------------------| |-------------------|--------------------| |-------------------|--------------------| |--5-5-5-5-5-5-5-5--|--5-5-5-5-5-5-5-5---|
No bass during outro.
END
END
+--------------------------------------------------------------------------+ | This file is the author's own work and represents their interpretation | | of the song. You may only use this file for private study, scholarship, | | or research. | +--------------------------------------------------------------------------+
Ultimate-Guitar.Com © 2005


















variations - click chord images
Transpose chords:
Tuning:
Cool service:
View: Size:
A  A  A
Rating:
Layout:
  • Currently 0/5 Stars.
  • 1
  • 2
  • 3
  • 4
  • 5
 
Accuracy:
  • Currently 0/5 Stars.
  • 1
  • 2
  • 3
  • 4
  • 5
 
click stars to rate
Chordie recommends:
Get acoustic guitar lessons and electric guitar lessons at JamPlay.com
Songbook:
Login to add this song to your songbook
Support the artist
Preview/buy this song
MSN Music
Why this non-profit ad?

 
login to add comments/video/corrections