Guitar Tabs, Chords and Lyrics


Hypnotize   System Of A Down



| Ultimate Guitar Tabs Archive - your #1 source for tabs!               |
| http://www.ultimate-guitar.com/                                       |
|                                                                       |
| Over 150,000 of guitar, guitar pro and bass tabs! Also lessons, news, |
| columns and guitar forums!                                            |


Artist: System Of A Down
Song: Hypnotize


Intro
Gb|12-12-12-12-12-12-12-12-12-12-12-12-12-12-12-12|
Db|-----------------------------------------------|
Ab|-----------------------------------------------| x4
Db|-----------------------------------------------|

Gb|0-0-0-0-0-0-0-0-0-0-0-0-0-0-0-0|
Db|-------------------------------|
Ab|-------------------------------|x3
Db|-------------------------------|

Verse
Gb|--------------------------------------------|
Db|--------------------------------------------|
Ab|--------------6-6-6-6---------------6-6-6-6-|x4
Db|5--5--5--5-5----------5--5--5--5-5----------|

Chorus
Gb|0-0-0-0-0-0-0-0-0-0-0-0-0-0-0-0-|
Db|--------------------------------|
Ab|--------------------------------|x3
Db|--------------------------------|

Verse
Chorus
Verse x2
Pre-Solo
Gb|-----------------------------------------------|
Db|-----------------------------------------------|
Ab|----------------6-6-6-6-6-6-6-6-6-6-6-6-6-6-6-6|
Db|5-5-5-5-5-5-5-5--------------------------------|

Gb|-----------------------------------------------|
Db|-----------------------------------------------|
Ab|8-8-8-8-8-8-8-8--------------------------------|
Db|----------------8-8-8-8-8-8-8-8-0-0-0-0-0-0-0-0|

Solo
Gb|----------------------|
Db|----------------------|
Ab|----------------------|x20
Db|5--0-0--3--5--0-0--3--|

Pre-solo
solo x4

Outro
Gb|------------------------------------------------------------|
Db|------------------------------------------------------------|
Ab|---------------6-6-6-6-6------6-6-6-6-6------8-8-8-8-8------|
Db|5-5-5-5-5---------------------------------------------------|

Gb|---------------------------------|
Db|-------*Let It Ring*-------------|
Ab|---------------------------------|
Db|8----------------0---------------|









END

+--------------------------------------------------------------------------+
| This file is the author's own work and represents their interpretation   |
| of the song. You may only use this file for private study, scholarship,  |
| or research.                                                             |
+--------------------------------------------------------------------------+



Important: The song above is NOT stored on the Chordie server. The original song is hosted at www.ultimate-guitar.com. Chordie works as a search engine and provides on-the-fly formatting. Chordie does not index songs against artists/composers will. To remove this song please click here.

This song is displayed as text-only. Transposing and tuning is only available for chordpro-songs.

Login - add to songbook

Rating click stars to rate

Layout
Accuracy

SHARE PAGE  




You need to log in to post comments