Chordie logo


Violent Pornography   System Of A Down



| Ultimate Guitar Tabs Archive - your #1 source for tabs!               |
| http://www.ultimate-guitar.com/                                       |
|                                                                       |
| Over 200,000 guitar, guitar pro and bass tabs! Also lessons, news,    |
| columns and guitar forums!                                            |


Artist: System Of A Down
Song: Violent Pornography


    ______________________
   / System of a Down    /  I think this song is about how much crap is on the medias today.
  / Violent Pornography /  It's about all those false emotions people receive, when they see
 / Mezmerize           /  people on the television fuck, suck, cry and die, and about how
/_____________________/  everything in the medias seems so bright and wonderful.


Tuning: Db Ab Db Gb Bb Eb
        C# G# C# F# A# D#
Gtr I, II - Electric, Lightly Overdriven
Gtr III, IV - Electric, Distorted



 Intro:
 4/4
 Q=140 bpm
 Gtr I
                                        |-------3------|
  H       Q.    E   a W                 Q  Q  Q  Q  Q  Q    E E H.
|-----------------|-------------------|-------------------|-----------------|
|-----------------|-------------------|-------------------|-----------------|
|-----------------|-------------------|-------------------|-----------------|
|---------4-----5-|-5h7---------------|-8--7--5--8--7--5--|-4b5r4-----------|
|-----------------|-------------------|-------------------|-----------------|
|-0---------------|-------------------|-------------------|-----------------|


  W                 H       H         H       Q.    E   a W
|-----------------|-----------------|-----------------|-------------------|
|-----------------|-----------------|-----------------|-------------------|
|-----------------|-7---------------|-----------------|-------------------|
|-8---------------|---------8-------|---------4-----5-|-5h7---------------|
|-----------------|-----------------|-5---------------|-------------------|
|-----------------|-----------------|-0---------------|-------------------|


 Gtr I
  |-------3------|
  Q  Q  Q  Q  Q  Q    E E H.            W                 H       Q.    E
|-------------------|-----------------|-----------------|-----------------|
|-------------------|-----------------|-----------------|-3---------------|
|-------------------|-----------------|-----------------|-5---------------|
|-8--7--5--8--7--5--|-4b5r4-----------|-8---------------|---------8-----7-|
|-------------------|-----------------|-----------------|---------------5-|
|-------------------|-----------------|-----------------|-----------------|
|
|Gtr II
| W                   W                 W                 H       Q.    E
|-------------------|-----------------|-----------------|-----------------|
|-------------------|-----------------|-----------------|-----------------|
|-------------------|-----------------|-----------------|-----------------|
|-------------------|-----------------|-----------------|---------------7-|
|-------------------|-----------------|-----------------|---------------5-|
|-------------------|-----------------|-----------------|-----------------|




 1st Verse:
 Gtr I, II
                                                         1.
    E Q.    Q.    E   E Q.    Q.    E   E Q.    Q.    E   E Q.    Q.    E

||------------------|-----------------|-----------------|------------------||
||o-----------------|-----------------|-----------------|-----------------o||
||------------------|-----------------|-----------------|------------------||
||--8-------------8-|-9-------------9-|-8-------------8-|-7-------------7--||
||o-6-------------6-|-7-------------7-|-6-------------6-|-5-------------5-o||
||------------------|-----------------|-----------------|------------------||
...everybody, everybody, everybody livin' now...


 Gtr I, II
 2.
  E Q.     H
|-------------------||
|-------------------||
|-------------------||
|-7-----------------||
|-5-----------------||
|-------------------||
|
|Gtr III, IV
| H.           E. S
|-------------------||
|-------------------||
|-------------------||
|-------------------||
|-------------12\-0-||
|-------------12\-0-||




 Bridge:
 Gtr III, IV
  PM--|       PM----------|     PM------------|     PM|
  E   E   E   S S +S  S S S E   S S   +S  S S S E   S S E.    E.    E
|-----------------------------------|-----------------------------------|
|-----------------------------------|-----------------------------------|
|-----------------------------------|-----------------------------------|
|-----------------------------------|-----------------------------------|
|-0---0---0---0-0-(0)-0-0-0-0---0-0-|-(0)-0-0-0-0---0-0-1-----3-----4---|
|-0---0---0---0-0-(0)-0-0-0-0---0-0-|-(0)-0-0-0-0---0-0-1-----3-----4---|
...it's a non-stop disco...


  PM--|       PM----------|     PM------------|     PM|
  E   E   E   S S +S  S S S E   S S   +S  S S S E   S S E.    E.    E
|-----------------------------------|-----------------------------------|
|-----------------------------------|-----------------------------------|
|-----------------------------------|-----------------------------------|
|-----------------------------------|-----------------------------------|
|-0---0---0---0-0-(0)-0-0-0-0---0-0-|-(0)-0-0-0-0---0-0-4-----3-----1---|
|-0---0---0---0-0-(0)-0-0-0-0---0-0-|-(0)-0-0-0-0---0-0-4-----3-----1---|


  PM--|           PM----|           PM----|     PM|
  E   E   E   E   S S S S E   E     S S S S E   S S E.    E.    E
|---------------------------------|---------------------------------|
|---------------------------------|---------------------------------|
|---------------------------------|---------------------------------|
|---------------------------------|---------------------------------|
|-0---0---0-------0-0-0-0-0-------|-0-0-0-0-0---0-0-1-----3-----4---|
|-0---0---0-------0-0-0-0-0-------|-0-0-0-0-0---0-0-1-----3-----4---|


 Gtr III, IV
  PM----------------------------------------------|
  S S S S e   S S S S e   S S S S   e   S S S S S S E.    E.    E
|---------------------------------|---------------------------------|
|---------------------------------|---------------------------------|
|---------------------------------|---------------------------------|
|---------------------------------|---------------------------------|
|-0-0-0-0-0---0-0-0-0-0---0-0-0-0-|-0---0-0-0-0-0-0-4-----3---------|
|-0-0-0-0-0---0-0-0-0-0---0-0-0-0-|-0---0-0-0-0-0-0-4-----3---------|
|
|Gtr I, II

| W                                 H               Q.          E
|---------------------------------|---------------------------------|
|---------------------------------|---------------------------------|
|---------------------------------|---------------------------------|
|---------------------------------|-----------------------------7---|
|---------------------------------|-----------------------------5---|
|---------------------------------|---------------------------------|




 2nd Verse:
similar to 1st Verse




 Bridge:
similar to previous, but end on this instead:

 Gtr III, IV
  PM----------------------------------------------|
  S S S S e   S S S S e   S S S S   e   S S S S S S E.    E.    E
|---------------------------------|---------------------------------|
|---------------------------------|---------------------------------|
|---------------------------------|---------------------------------|
|---------------------------------|---------------------------------|
|-0-0-0-0-0---0-0-0-0-0---0-0-0-0-|-0---0-0-0-0-0-0-4-----3-----1---|
|-0-0-0-0-0---0-0-0-0-0---0-0-0-0-|-0---0-0-0-0-0-0-4-----3-----1---|




 Chorus:
 Gtr III, IV
  W                 W                 W                 W
|-----------------|-----------------|-----------------|-----------------|
|-----------------|-----------------|-----------------|-----------------|
|-----------------|-----------------|-----------------|-----------------|
|-0---------------|-4---------------|-5---------------|-7---------------|
|-0---------------|-4---------------|-5---------------|-7---------------|
|-0---------------|-4---------------|-5---------------|-7---------------|
|-Rhy Fig 1
...it's a violent pornography...


  W                  W                  W                 W
|-----------------|------------------|------------------|-----------------|
|-----------------|------------------|------------------|-----------------|
|-----------------|------------------|------------------|-----------------|
|-8---------------|-10---------------|-12---------------|-8---------------|
|-8---------------|-10---------------|-12---------------|-8---------------|
|-8---------------|-10---------------|-12---------------|-8---------------|
                                                            end Rhy Fig 1-|


      PM--------|       PM--------|       PM--------|       PM--------|
  Q   E E E E E E   Q   E E E E E E   Q   E E E E E E   Q   E E E E E E
|-----------------|-----------------|-----------------|-----------------|
|-----------------|-----------------|-----------------|-----------------|
|-----------------|-----------------|-----------------|-----------------|
|-0---------------|-4---------------|-5---------------|-7---------------|
|-0---0-0-0-0-0-0-|-4---4-4-4-4-4-4-|-5---5-5-5-5-5-5-|-7---7-7-7-7-7-7-|
|-0---0-0-0-0-0-0-|-4---4-4-4-4-4-4-|-5---5-5-5-5-5-5-|-7---7-7-7-7-7-7-|
|-Rhy Fig 2


 Gtr III, IV
      PM--------|         PM-------------|         PM-------------|       PM--------|
  Q   E E E E E E    Q    E  E  E  E  E  E    Q    E  E  E  E  E  E   Q   E E E E E E






|-----------------|------------------------|------------------------|-----------------|
|-----------------|------------------------|------------------------|-----------------|
|-----------------|------------------------|------------------------|-----------------|
|-8---------------|-10---------------------|-12---------------------|-8---------------|
|-8---8-8-8-8-8-8-|-10---10-10-10-10-10-10-|-12---12-12-12-12-12-12-|-8---8-8-8-8-8---|
|-8---8-8-8-8-8-8-|-10---10-10-10-10-10-10-|-12---12-12-12-12-12-12-|-8---8-8-8-8-8---|
|                                                                       end Rhy Fig 2-|
|
|Gtr I, II
| W                  W                        W                       H       Q.    E
|-----------------|------------------------|------------------------|-----------------|
|-----------------|------------------------|------------------------|-----------------|
|-----------------|------------------------|------------------------|-----------------|
|-----------------|------------------------|------------------------|---------------7-|
|-----------------|------------------------|------------------------|---------------5-|
|-----------------|------------------------|------------------------|-----------------|




 3rd Verse:
similar to 1st Verse




 Bridge:
similar to previous




 Chorus:
 Gtr I, II
Rhy Fig 1 x2


 Gtr III, IV
Rhy Fig 2
Rhy Fig 1




 Outro:
 Gtr I (Gtr III produces some lovely pick scraping)
                                          |-------3------|
    H       Q.    E   a W                 Q  Q  Q  Q  Q  Q    E E H.
||------------------|-------------------|-------------------|-----------------|
||o-----------------|-------------------|-------------------|-----------------|
||------------------|-------------------|-------------------|-----------------|
||----------4-----5-|-5h7---------------|-8--7--5--8--7--5--|-4b5r4-----------|
||o-----------------|-------------------|-------------------|-----------------|
||--0---------------|-------------------|-------------------|-----------------|
...can you say brainwashing?...


  W                 H       H           W
|-----------------|------------------||-----------------|
|-----------------|-----------------o||-----------------|
|-----------------|-7----------------||-----------------|
|-8---------------|---------8--------||-----------------|
|-----------------|-----------------o||-----------------|
|-----------------|------------------||-0---------------|



  Everybody, everybody, everybody livin' now
  Everybody, everybody, everybody fucks

  Everybody, everybody, everybody livin' now
  Everybody, everybody, everybody sucks

  Everybody, everybody, everybody livin' now
  Everybody, everybody, everybody cries

  Everybody, everybody, everybody livin' now
  Everybody, everybody dies

  It's a non-stop disco
  Bet you it's Nabisco
  Betcha didn't know

  It's a violent pornography
  Choking chicks and sodomy
  The kinda shit that's on your TV

  It's on the TV
  Fuck, turn off your TV

  Can you say "brainwashing"?
  It's a non-stop disco



- 3th /February /06
Just mail me at Maitinin@gmail.com with questions, comments and corrections!

END

+--------------------------------------------------------------------------+
| This file is the author's own work and represents their interpretation   |
| of the song. You may only use this file for private study, scholarship,  |
| or research.                                                             |
+--------------------------------------------------------------------------+



Important: The song above is NOT stored on the Chordie server. The original song is hosted at www.ultimate-guitar.com. Chordie works as a search engine and provides on-the-fly formatting. Chordie does not index songs against artists/composers will. To remove this song please click here.

This song is displayed as text-only. Transposing and tuning is only available for chordpro-songs.

Login - add to songbook

Rating click stars to rate

Layout
Accuracy

SHARE PAGE  




You need to log in to post comments