Red High Heels

Kellie Pickler

-----------------------------------------------------------------------

-----------------------------------------------------------------------

 DDDDsus2DDsus4DDsus4Dsus4
    e|--2---2---2---0------2----2/3-----2---3-----3-------|
    B|----------------------------------------------------|
    G|----------------------------------------------------|
    D|----------------------------------------------------|
    A|----------------------------------------------------|
    E|----------------------------------------------------|


Intro: riff (x2)

Verse 1:

 DG
 Baby, I've got plans tonight
(riff)
You don't know nothin' about
 DG
I've been sittin' round way too long
(riff)
Tryin' to figure you out
 DG
But you say that you'll call and you don't
(riff)
And I'm spinnin' my wheels
A G (riff x2)
So I'm goin' out tonight in my red high heels

Verse 2:
 DG
I'm gonna call up that old boyfriend you said
(riff)
still has it bad for me
 DG
I'm gonna take him into town, flaunt him around
(riff)
For everyone to see
 DG
Well, you said once yourself, baby 
(riff)
Yeah, you know the deal.
 AGD
Nobody holds a candle to me in my red high heels

Chorus:
 AGD/F#
Oh, you can watch me walk if you want to, want to
 AGD/F#
 I bet you want me back now don't you, don't you
 AGD/F#EmA
 I'm about to show you just how missin' me feels  
(riff x2)
In my red high heels

Verse 3:
 D
All those games you tried to play
 GDG
well they ain't gonna work on me now  
 DG
I put a barbed wire fence around my heart, baby
 DG
Just to keep you out  
 DG
Well, you thought I'd wait around forever
(riff)
But baby get real
 AG
I just kicked you to the curb
 D
In my red high heels

Chorus:
 AGD/F#
 Oh, you can watch me walk if you want to, want to
 AGD/F#
 I bet you want me back now don't you, don't you
 AGD/F#EmA
 I'm about to show you just how missin' me feels  
In my red high heels

Solo:
 GD/F#EmD/F#GD/F#EmD
e|-2-2-0--------------------2-2-0---5/7-2-2/5---------|
B|-------3-----------3/5----------3-------------------|
G|---------2/4-2-2/4----------------------------------|
D|----------------------------------------------------|
A|----------------------------------------------------|
E|----------------------------------------------------|


Chorus:
 AGD/F#
 Oh, you can watch me walk if you want to, want to
 AGD/F#
 I bet you want me back now don't you, don't you
 AGD/F#EmA
 I'm about to show you just how missin' me feels  

Chorus:
 AGD/F#
 Oh, you can watch me walk if you want to, want to
 AGD/F#
 I bet you want me back now don't you, don't you
 AGD/F#EmA
 I'm about to show you just how missin' me feels  

(riff repeats until end)

 DGD
In my red high heels       
 GDGD
   In my red high heels     
 GD
   In my red high heels

Chords:
 DDsus2Dsus4GAD/F#Em
e|--2-----0-----3-----3-----0-----0-----0------|
B|--3-----3-----3-----3-----2-----3-----0------|
G|--2-----2-----2-----0-----2-----2-----0------|
D|--0-----0-----0-----0-----2-----0-----2------|
A|--x-----x-----x-----2-----0-----0-----2------|
E|--x-----x-----x-----3-----x-----2-----0------|


http://www.bnarecords.com/kp/kp.htm
http://www.kelliepickleronline.org/
http://imdb.com/name/nm2213728/

END

+--------------------------------------------------------------------------+

| This file is the author's own work and represents their interpretation |
| of the song. You may only use this file for private study, scholarship, |
| or research. |
+--------------------------------------------------------------------------+


Ultimate-Guitar.Com © 2005


A D D/F# Dsus2 Dsus4 Em G
variations - click chord images
Transpose chords:
Tuning:
Cool service:
View: Size:
A  A  A
Rating:
Layout:
  • Currently 5/5 Stars.
  • 1
  • 2
  • 3
  • 4
  • 5
 
Accuracy:
  • Currently 3.5/5 Stars.
  • 1
  • 2
  • 3
  • 4
  • 5
 
click stars to rate
Chordie recommends:
Learn to play songs at Jamplay.com with video guitar lessons
Songbook:
Login to add this song to your songbook
Support the artist
Preview/buy this song
MSN Music
Why this non-profit ad?

 
login to add comments/video/corrections