Chordie logo

Sweet Sacrifice   Evanescence



| Ultimate Guitar Tabs Archive - your #1 source for tabs!               |
| http://www.ultimate-guitar.com/                                       |
|                                                                       |
| Over 200,000 guitar, guitar pro and bass tabs! Also lessons, news,    |
| columns and guitar forums!                                            |


Artist: Evanescence
Song: Sweet Sacrifice


Artista:  Evanescence
cancion: Sweet Sacrifice
Album:   The Open Door
Transcrita por: Robin6sic6 Robin6sic6@hotmail.com

Notaciones

h = hammer on 
/ = slide

Version 1.0
Fecha 29 de OCtubre del 2006

Any comments or questions can be e-mailed to me at Robin6sic6@hotmail.com
Cualquier comentario o pregunta mandame un mail a Robin6sic6@hotmail.com

Afinacion de guitarra 

1-D
2-A
3-F
4-C
5-G
6-C

Intro y primera parte                                                                          
|-----------------------------------------------------------|
|-----------------------------------------------------------|
|-----------------------------------------------------------|
|-----------------------------------------------------------|
|--6--6--6------6--6--6--6--6------6--6--6--6--6--6--6------|
|--6--6--6------6--6--6--6--6------6--6--6--6--6--6--6------|


|-----------------------------------------------------------|
|-----------------------------------------------------------|
|-----------------------------------------------------------|
|-----------------------------------------------------------|
|--2--2--2------2--2--2--2--2------2--2--2--2/-1--1--1------|
|--2--2--2------2--2--2--2--2------2--2--2--2/-1--1--1------|


                                                                     
|------------------------------------|
|------------------------------------|
|--8----6---8----9----8----9----6----|
|------------------------------------|
|------------------------------------|
|------------------------------------|


coro

Primero una sola vez y despues todo                                                    
|----------------------------|----------------------|
|----------------------------|----------------------|
|----------------------------|----------------------|
|----------------------------|--x--x-------x--x-----|
|--4---6--6--4---7---6-------|--x--x--2----x--x--2--|
|--4---6--6--4---7---6-------|--x--x--2----x--x--2--|

Verso


|-----------------------------------------------------------|
|-----------------------------------------------------------|
|-----------------------------------------------------------|
|-----------------------------------------------------------|
|--6--6--6------6--6--6--6--6------6--6--6--6--6--6--6------|
|--6--6--6------6--6--6--6--6------6--6--6--6--6--6--6------|


|----------------------------------------------------------------------------|
|----------------------------------------------------------------------------|
|----------------------------------------------------------------------------|
|----------------------------------------------------------------------------|
|--2--2--2------2--2--2--2--2------2--2--2--2---h-------------h-------h------|
|--2--2--2------2--2--2--2--2------2--2--2--2--0-1-1-1-1-1-1-3-4-0-0-2-3-0-0-|

|------------------------------------|
|------------------------------------|
|--8----6---8----9----8----9----6----|
|------------------------------------|
|------------------------------------|
|------------------------------------|

|----------------------------|----------------------|
|----------------------------|----------------------|
|----------------------------|----------------------|
|----------------------------|--x--x-------x--x-----|
|--4---6--6--4---7---6-------|--x--x--2----x--x--2--|
|--4---6--6--4---7---6-------|--x--x--2----x--x--2--|

                                                                  
|--------------------------------------------------------------| 

Important: The song above is NOT stored on the Chordie server. The original song is hosted at www.ultimate-guitar.com. Chordie works as a search engine and provides on-the-fly formatting. Chordie does not index songs against artists/composers will. To remove this song please click here.

This song is displayed as text-only. Transposing and tuning is only available for chordpro-songs.

Login - add to songbook

Rating click stars to rate

Layout
Accuracy

SHARE PAGE  

You need to log in to post comments