""; ?> Sweet Sacrifice by Evanescence - guitar chords, guitar tabs and lyrics - chordie

Sweet Sacrifice

Evanescence


| Ultimate Guitar Tabs Archive - your #1 source for tabs! | | http://www.ultimate-guitar.com/ | | | | Over 200,000 guitar, guitar pro and bass tabs! Also lessons, news, | | columns and guitar forums! |
Artist: Evanescence Song: Sweet Sacrifice
Artista: Evanescence cancion: Sweet Sacrifice Album: The Open Door Transcrita por: Robin6sic6 Robin6sic6@hotmail.com
Notaciones
h = hammer on / = slide
Version 1.0 Fecha 29 de OCtubre del 2006
Any comments or questions can be e-mailed to me at Robin6sic6@hotmail.com Cualquier comentario o pregunta mandame un mail a Robin6sic6@hotmail.com
Afinacion de guitarra
1-D 2-A 3-F 4-C 5-G 6-C
Intro y primera parte |-----------------------------------------------------------| |-----------------------------------------------------------| |-----------------------------------------------------------| |-----------------------------------------------------------| |--6--6--6------6--6--6--6--6------6--6--6--6--6--6--6------| |--6--6--6------6--6--6--6--6------6--6--6--6--6--6--6------|
|-----------------------------------------------------------| |-----------------------------------------------------------| |-----------------------------------------------------------| |-----------------------------------------------------------| |--2--2--2------2--2--2--2--2------2--2--2--2/-1--1--1------| |--2--2--2------2--2--2--2--2------2--2--2--2/-1--1--1------|
|------------------------------------| |------------------------------------| |--8----6---8----9----8----9----6----| |------------------------------------| |------------------------------------| |------------------------------------|
coro
Primero una sola vez y despues todo |----------------------------|----------------------| |----------------------------|----------------------| |----------------------------|----------------------| |----------------------------|--x--x-------x--x-----| |--4---6--6--4---7---6-------|--x--x--2----x--x--2--| |--4---6--6--4---7---6-------|--x--x--2----x--x--2--|
Verso
|-----------------------------------------------------------| |-----------------------------------------------------------| |-----------------------------------------------------------| |-----------------------------------------------------------| |--6--6--6------6--6--6--6--6------6--6--6--6--6--6--6------| |--6--6--6------6--6--6--6--6------6--6--6--6--6--6--6------|
|----------------------------------------------------------------------------| |----------------------------------------------------------------------------| |----------------------------------------------------------------------------| |----------------------------------------------------------------------------| |--2--2--2------2--2--2--2--2------2--2--2--2---h-------------h-------h------|
|--2--2--2------2--2--2--2--2------2--2--2--2--0-1-1-1-1-1-1-3-4-0-0-2-3-0-0-|
|------------------------------------| |------------------------------------| |--8----6---8----9----8----9----6----| |------------------------------------| |------------------------------------| |------------------------------------|
|----------------------------|----------------------| |----------------------------|----------------------| |----------------------------|----------------------| |----------------------------|--x--x-------x--x-----| |--4---6--6--4---7---6-------|--x--x--2----x--x--2--| |--4---6--6--4---7---6-------|--x--x--2----x--x--2--|
|--------------------------------------------------------------| <-| |--------------------------------------------------------------| | |--------------------------------------------------------------| | |--------------------------------------------------------------| | |--------------------------------------------------------------| | |--6--6--6--6--6--6--6--6--7--7--7--7--7--7--7--7--9--9--9--9--| | | x3 |---------------------------------------------| | |---------------------------------------------| | |---------------------------------------------| | |---------------------------------------------| | |---------------------------------------------| | |-9--9--9--9--11--11--11--11--11--11--11--11--| <-|
|--------------------------------------------------------------| |--------------------------------------------------------------| |--------------------------------------------------------------| |--------------------------------------------------------------| |--------------------------------------------------------------| |--6--6--6--6--6--6--6--6--7--7--7--7--7--7--7--7--9--9--9--9--| El "14" se repite 13 veces al mismo ritmo que las otras |---------------------------------------------|----| |---------------------------------------------|----| |---------------------------------------------|----| |---------------------------------------------|----| |---------------------------------------------|-14-| |-9--9--9--9--11--11--11--11--11--11--11--11--|-14-|
|----------------------------|----------------------| |----------------------------|----------------------| |----------------------------|----------------------| |----------------------------|--x--x-------x--x-----| |--4---6--6--4---7---6-------|--x--x--2----x--x--2--| |--4---6--6--4---7---6-------|--x--x--2----x--x--2--|
FINAL |--------------------------| |--------------------------| |--------------------------| |--------------------------| |--4---6--6--4---7---6-----| |--4---6--6--4---7---6-----|
|------------------------|-----------------| |------------------------|-----------------| |------------------------|-----------------| |------------------------|-----------------| |--4--4--6---4--4--4--4--|--6--6--4--7--6--| |--4--4--6---4--4--4--4--|--6--6--4--7--6--|
|----------------------------|----------------------|| |----------------------------|----------------------|| |----------------------------|----------------------|| |----------------------------|--x--x-------x--x-----|| |--4---6--6--4---7---6-------|--x--x--2----x--x--2--|| |--4---6--6--4---7---6-------|--x--x--2----x--x--2--||
Robin6sic6
END
+--------------------------------------------------------------------------+ | This file is the author's own work and represents their interpretation | | of the song. You may only use this file for private study, scholarship, | | or research. | +--------------------------------------------------------------------------+
Ultimate-Guitar.Com © 2005












variations - click chord images
Transpose chords:
Tuning:
Cool service:
View: Size:
A  A  A
Rating:
Layout:
  • Currently 0/5 Stars.
  • 1
  • 2
  • 3
  • 4
  • 5
 
Accuracy:
  • Currently 0/5 Stars.
  • 1
  • 2
  • 3
  • 4
  • 5
 
click stars to rate
Chordie recommends:
Get acoustic guitar lessons and electric guitar lessons at JamPlay.com
Songbook:
Login to add this song to your songbook
Support the artist
Preview/buy this song
MSN Music
Why this non-profit ad?

 
login to add comments/video/corrections