Guitar Tabs, Chords and Lyrics


   Various Artists


----------------------------------------------------------------------------
	     Hold on Tight To Your Dreams - Electric Light Orchestra
----------------------------------------------------------------------------
Tabbed by:  SchecterMan71
Email:  pennyankee32@msn.com

Tuning:  Standard

* There's only one version of this song out there, no power chord formation ones exist 
so I made this version myself ... the song itself is a bit unorthodox ... listen to the 
patterns ... they can be a bit tricky *

e)|--------------------------------------------|
B)|--------------------------------------------|
G)|--------------------------------------------|
D)|-7777777777777777777777---55555555555555555-|
A)|-5555555555555555555555---33333333333333333-|
E)|--------------------------------------------|
Hmm....hold on tight to your dream
Yeah...hold on tight to your dream

e)|--------------------------------------------|
B)|--------------------------------------------|
G)|--------------------------------------------|
D)|-9999999999999--55555555555555555-----------|
A)|-7777777777777--33333333333333333-----------|
E)|--------------------------------------------|
When you see your  ship go sailing
When you feel your heart is breaking

e)|--------------------------------------------|
B)|--------------------------------------------|
G)|--------------------------------------------|
D)|-7777777777777777777777---------------------|
A)|-5555555555555555555555---------------------|
E)|--------------------------------------------|
Hold on tight..ooh..to your dream

e)|--------------------------------------------|
B)|--------------------------------------------|
G)|--------------------------------------------|
D)|-7777777777777777777777---55555555555555555-|
A)|-5555555555555555555555---33333333333333333-|
E)|--------------------------------------------|
Hmm....it's a long time to be gone
Oh....time just rolls on and on

e)|--------------------------------------------|
B)|--------------------------------------------|
G)|--------------------------------------------|
D)|-99999999999--55555555555555555-------------|
A)|-77777777777--33333333333333333-------------|
E)|--------------------------------------------|
When you need a  shoulder to cry on
When you get so  sick of trying

e)|--------------------------------------------|
B)|--------------------------------------------|
G)|--------------------------------------------|
D)|-7777777777777777777777---------------------|
A)|-5555555555555555555555---------------------|
E)|--------------------------------------------|
Hold on tight to your dream

Bridge - Repeat pattern
e)|--------------------------------------------|
B)|--------------------------------------------|
G)|--------------------------------------------|
D)|-------99----77-----------99--------77------|
A)|-------77----55-----------77--------55------|
E)|--------------------------------------------|
When you get so down that you can't get up

e)|--------------------------------------------|
B)|--------------------------------------------|
G)|--------------------------------------------|
D)|--------------------------------------------|
A)|-----99------77--------------99--------77---|
E)|-----77------55--------------77--------55---|
And you want so much but you're all out of luck

e)|--------------------------------------------|
B)|--------------------------------------------|
G)|--------------------------------------------|
D)|--------99-----77-----------99------77------|
A)|--------77-----55-----------77------55------|
E)|--------------------------------------------|
When you're so downhearted and misunderstood

e)|--------------------------------------------|
B)|--------------------------------------------|
G)|--------------------------------------------|
D)|--55 ------77-------55-------77-------------|
A)|--33 ------55-------33-------55-------------|
E)|--------------------------------------------|
Just over and over and over you could

e)|--------------------------------------------|
B)|--------------------------------------------|
G)|--------------------------------------------|
D)|-77777777777777777----55555555555555555-----|
A)|-55555555555555555----33333333333333333-----|
E)|--------------------------------------------|
Accroches-toi a ton reve
Accroches-toi a ton reve

e)|--------------------------------------------|
B)|--------------------------------------------|
G)|--------------------------------------------|
D)|-9999999999999--55555555555555555-----------|
A)|-7777777777777--33333333333333333-----------|
E)|--------------------------------------------|
Quand tu vois ton  bateau partir
Quand tu sents ton coeur se briser

e)|--------------------------------------------|
B)|--------------------------------------------|
G)|--------------------------------------------|
D)|-7777777777777777777777---------------------|
A)|-5555555555555555555555---------------------|
E)|--------------------------------------------|
Accroches-toi a ton reve.

Bridge - Repeat pattern
e)|--------------------------------------------|
B)|--------------------------------------------|
G)|--------------------------------------------|
D)|-------99----77-----------99--------77------|
A)|-------77----55-----------77--------55------|
E)|--------------------------------------------|
When you get so down that you can't get up

e)|--------------------------------------------|
B)|--------------------------------------------|
G)|--------------------------------------------|
D)|--------------------------------------------|
A)|-----99------77-------------99--------77----|
E)|-----77------55-------------77--------55----|
And you want so much but you're all out of luck

e)|--------------------------------------------|
B)|--------------------------------------------|
G)|--------------------------------------------|
D)|--------99-----77-----------99------77------|
A)|--------77-----55-----------77------55------|
E)|--------------------------------------------|
When you're so downhearted and misunderstood

e)|--------------------------------------------|
B)|--------------------------------------------|
G)|--------------------------------------------|
D)|--55 ------77-------55-------77-------------|
A)|--33 ------55-------33-------55-------------|
E)|--------------------------------------------|
Just over and over and over you could

e)|--------------------------------------------|
B)|--------------------------------------------|
G)|--------------------------------------------|
D)|-7777777777777777777777----5555555555555555-|
A)|-5555555555555555555555----3333333333333333-|
E)|--------------------------------------------|
Yeah....hold on tight to your dream
Yeah....hold on tight to your dream

e)|--------------------------------------------|
B)|--------------------------------------------|
G)|--------------------------------------------|
D)|-9999999999999--55555555555555555-----------|
A)|-7777777777777--33333333333333333-----------|
E)|--------------------------------------------|
When you see the   shadows falling
When you hear that cold wind calling

e)|--------------------------------------------|
B)|--------------------------------------------|
G)|--------------------------------------------|
D)|-7777777777777777777777---------------------|
A)|-5555555555555555555555---------------------|
E)|--------------------------------------------|
Hold on tight to your dream

Ooh yeah

e)|--------------------------------------------|
B)|--------------------------------------------|
G)|--------------------------------------------|
D)|-77777777777777777-55555555555555555--------|
A)|-55555555555555555-33333333333333333--------|
E)|--------------------------------------------|
Hold on tight to your dream

e)|--------------------------------------------|
B)|--------------------------------------------|
G)|--------------------------------------------|
D)|-77777777777777-------121212---------7--77--|
A)|-55555555555555-------101010-------5555555--|
E)|--------------------------------------------|
Yeah...hold on tight...   To your dream


| /  slide up
| \  slide down
| h  hammer-on
| p  pull-off
| ~  vibrato
| +  harmonic
| x  Mute note


Important: The song above is NOT stored on the Chordie server. The original song is hosted at www.ultimate-guitar.com. Chordie works as a search engine and provides on-the-fly formatting. Chordie does not index songs against artists/composers will. To remove this song please click here.

This song is displayed as text-only. Transposing and tuning is only available for chordpro-songs.

Login - add to songbook

Rating click stars to rate

Layout
Accuracy

SHARE PAGE  




You need to log in to post comments