e ------------------------------------------------------------------|

B ------------------------------------------------------------------|

G ------------------------------------------------------------------|

D --3-2-0---------------------3-2-0--------5---5---5---5------------|

A --------0-3-(3)-(3)-(3)-----------0-5s-7---7---7---7--------------|

E ------------------------------------------------------------------|

e ------------------------------------------------------------------|

B ------------------------------------------------------------------|

G -------------------------------------------------5----------------|

D -3-2-0-----0--------------3-2-0-------5---5----5---5--------------|

A -------0-3---0------------------0-5s-7---7---7--------------------|

E ------------------------------------------------------------------| *2

e ------------------------------------------------------------------|

B ------------------------------------------------------------------|

G -------------------------------------------------5----------------|

D -3-2-0-----0--------------3-2-0--------5---5----5---5-------------|

A -------0-3---0-0-0-0------------0-5s-7---7---7--------------------|

E ------------------------------------------------------------------|

e ------------------------------------------------------------------|

B ------------------------------------------------------------------|

G ------------------------------------------------------------------|

D --3-2-0---------------------3-2-0--------5---5---5---5------------|

A --------0-3-(3)-(3)-(3)-----------0-5s-7---7---7---7--------------|

E ------------------------------------------------------------------|

e ------------------------------------------------------------------|

B ------------------------------------------------------------------|

G ------------------------------------------------------------------|

D --3-2-0-----0---------------3-2-0--------5---5--------------------|

A --------0-3---0-0-0-0-------------0-5s-7---7---7--5--3--5---------|

E ------------------------------------------------------------------|

e ------------------------------------------------------------------|

B ------------------------------------------------------------------|

G ------------------------------------------------------------------|

D --8-8-8-7-5---3--5--------7-7-7-5--------------8---8*-------------|

A ------------7---------------------8--------------8---8------------|

E -------------------------------------------*(6)-------------------|

e ------------------------------------------------------------------|

B ------------------------------------------------------------------|

G ------------------------------------------------------------------|

D --8-8-8-7-5---3--5----7-7-7-5--------8--8--8--8*------------------|

A ------------7-----------------8---*---8--8--8--8-----8-8-10-8-7---|

E ------------------------------------------------------------------|

e ---------------------------------------------------|

B ---------------------------------------------------|

G ---------------------------------------------------|

D -*-8---8---8---8-----------------------------------|

A ----8---8---8---8-------7---7---7---7--------------|

E ----------------------8---8---8---8--*-------------|


 F
 After we spoke I had a dream that I broke
 C
The teeth from a mouth of a snake
That I choked on the teeth
 F
They were mine all along
 F
 I picked up the pieces when I woke
 CF
Put them in a boat made of things that I don't want to see
 F
 I blew on the sail
Watched it drift out to sea
 C
The further it drifted the closer it came to me
 F
I can't explain
 F
 So I took it apart in a billion boxes
 C
There was only one thing
 A#C
 You might think I'm your enemy
 FA#
But that don't make you mine
 A#C
 And all I have now is sympathy
 FA#
I wish that you'd stop trying
 C
Oh, please stop lying
Stop la la la la la la la
La la la la la
The hatred in the box then I locked
The strongest one I knew
I buried it all, grew a tree without thorns
Sat beneath the shade
You might think I'm your enemy
But that don't make you mine
And all I have now is sympathy
I wish that you'd stop trying
Oh please stop lying
Please stop la la la la la la
La la la la la
La la la la la


Corrected by Guitarpix. View original
A# C F
variations - click chord images
Transpose chords:
Tuning:
Cool service:
View: Size:
A  A  A
Rating:
Layout:
  • Currently 0/5 Stars.
  • 1
  • 2
  • 3
  • 4
  • 5
 
Accuracy:
  • Currently 4/5 Stars.
  • 1
  • 2
  • 3
  • 4
  • 5
 
click stars to rate
Chordie recommends:
Check out JamPlay.com for online video guitar lessons
Songbook:
Login to add this song to your songbook
Support the artist
Preview/buy this song
MSN Music
Why this non-profit ad?

 
login to add comments/video/corrections