"yes"; ?> by Various Artists - guitar chords, guitar tabs and lyrics - chordie
Whew.  Finally, I finished tabbing Minutes to Midnight,
LP's new album.  Every song is in drop d tuning, and most
aren't too hard.  Have fun!
<br />
I tabbed this entire thing myself, except for a few parts, I will
mention this when there is a part I didn't tab myself along with
credit to whoever I got the part from.
<br />
One more note: I made these in Microsoft word, with 0.7" side margins,
so the tabs might be easier to read that way (in case they don't fit
all the way across).
<br />
Any problems, suggestions, corrections, etc., post a comment, I
will check the comments to see how I can improve my tabs.  Thanks
<br />
Update 6/11/07: Fixed What I've Done solo and the problem
with the downward arrow symbols
<br />
Update 6/13/07: Thanks to Logan_B and the AOL Sessions videos, I noticed
that the chorus lead in What I've Done is single notes, not octaves, so I
went back in and fixed it.
<br />
Update 7/23/07: After posting the comment about getting back to 5 stars,
etc., I decided to update this tab with what I know.  Still haven't tabbed
No Roads Left, cause I'm lazy, but I'll get there.  I Added a riff in the
outro for The Little Things Give You Away that I "discovered". Also updated
What I've Done bridge with another guitar riff I noticed while listening to
the live version of the song, which I also added.  And I fixed Bleed It Out's verse 
thanks to kik_drumm3r.  And Given Up's bridge, I figured
something new out.  Sounds awesome.
<br />

1. Wake
There is a static sound in the beginning, I take the cord out
of the guitar and rub it on some carpet to imitate the sound,
if you want to add this in.
Lead Guitar, number of strums is approximate
|------------------------------------------|
|------------------------------------------|
|-12----14----16----16^----12----14----12--|
|--x-----x-----x-----x------x-----x-----x--|
|-10----12----14----14^----10----12----10--|
|------------------------------------------|
 x12   x12    x18   x6     x12   x12   x48
<br />
Rhythm (play as whole notes, strumming however many times necessary)
|----------------|
|----------------|
|-5~-------------|
|-5~-------------|
|-5~-------------|
<br />

2. Given Up, Intro (play all twice)
|--------------------------------|
|--------------------------------|
|--------------------------------|
|--2---x-x---x-x---x-x-x—--x-x-3-|
|--2---x-x---x-x---x-x-x—--x-x-3-|
|--2---x-x---x-x---x-x-x—--x-x-3-| x3
<br />
|--------------------------------|
|--------------------------------|
|----------------------3---------|
|--2---x-x---x-x---x-x-3—--x-x-3-|
|--2---x-x---x-x---x-x-1—--x-x-3-|
|--2---x-x---x-x---x-x--—--x-x-3-|
No guitar in verse, chorus:
|-----------------------------------------------------------------|
|-----------------------------------------------------------------|
|-----------------------------------------------------------------|
|-2-2-2-2-2-2-2-2-5-5-5-5-5-5-5-5-0-0-0-0-0-0-0-0-7-7-7-7-7-7-7-7-|
|-2-2-2-2-2-2-2-2-5-5-5-5-5-5-5-5-0-0-0-0-0-0-0-0-7-7-7-7-7-7-7-7-|
|-2-2-2-2-2-2-2-2-5-5-5-5-5-5-5-5-0-0-0-0-0-0-0-0-7-7-7-7-7-7-7-7-| x3
end with
|-----------------------------------------------------------------|
|-----------------------------------------------------------------|
|-----------------------------------------------------------------|
|-2-2-2-2-2-2-2-2-5-5-5-5-5-5-5-5-0-0-0-0-0-0-0-0-0-0-0-0-0-0-0-0-|
|-2-2-2-2-2-2-2-2-5-5-5-5-5-5-5-5-0-0-0-0-0-0-0-0-0-0-0-0-0-0-0-0-|
|-2-2-2-2-2-2-2-2-5-5-5-5-5-5-5-5-0-0-0-0-0-0-0-0-0-0-0-0-0-0-0-0-|
<br />
|-------------------------------|
|-------------------------------|
|-------------------------------|
|-7-7-7-7-7-7-7-7—x-x-8---x-x-3-|
|-7-7-7-7-7-7-7-7—x-x-8---x-x-3-|
|-7-7-7-7-7-7-7-7—x-x-8---x-x-3-|
Repeat verse, chorus, then bridge:
|-----------------------------6^-|
|-----------------------------5^-|
|--------------------------------|
|--------------------------------|
|--------------------------------|
|-0-1-2-0-4-3-0-6-5-0-1-2-0-2----| riff a
PM. . . . . . . . . . . . . .
|-----------------------------6^-|
|-----------------------------5^-|
|--------------------------------|
|-0-1-2-0-4-3-0-6-5-0-1-2-0-2----|
|-0-1-2-0-4-3-0-6-5-0-1-2-0-2----|
|-0-1-2-0-4-3-0-6-5-0-1-2-0-2----| riff b
<br />
|---------------------------------|
|---------------------------------|
|---------------------------------|
|-0-1-2-0-4-3-0-6-5-0-1-2-0-3-2-0-|
|-0-1-2-0-4-3-0-6-5-0-1-2-0-3-2-0-|
|-0-1-2-0-4-3-0-6-5-0-1-2-0-3-2-0-| riff c
repeat riffs b and c, end with (updated 7/23)
|-------------------------------------------------|
|-------------------------------------------------|
|-------------------------------------------------|
|-0-1-2-0-4-3-0-6-5-0-1-2-3-0-2-3-5-0-1-2-3-0-2-3-|
|-0-1-2-0-4-3-0-6-5-0-1-2-3-0-2-3-5-0-1-2-3-0-2-3-|
|-0-1-2-0-4-3-0-6-5-0-1-2-3-0-2-3-5-0-1-2-3-0-2-3-|
repeat intro and chorus, end song on
|--------|
|--------|
|--------|
|-2------|
|-2------|
|-2------|
<br />

3. Leave Out All the Rest
No guitar in verses, intro
Rhythm, chorus
|---------------------------------|
|---------------------------------|
|---------5~----------------------|
|-7~------5~------3~------0~------|
|-7~------3~------3~------0~------|
|-7~--------------3~------0~------| x2
Bridge
|-----------------------------------------|
|-----------------------------------------|
|-----------------------------------------|
|-0~------3~-----7~------10~------3~------|
|-0~------3~-----7~------10~------3~------|
|-0~------3~-----7~------10~------3~------|
Lead (16th notes, plays whenever rhythm plays)
|---------------------------------|
|---------------------------------|
|-5-5-5-5-5-5-5-5-5-5-5-5-5-5-5-5-|
|---------------------------------|
|---------------------------------|
|---------------------------------|
<br />

4. Bleed It Out
These are the riffs played throughout the song,
listen for which riff is being played when
|-9-----9-----9---9-------9-----9-7-----7-----7----7-7-7-7-5-5-5-5-|
|---7-7---7-7---7---7-7-7---7-7-----7-7---7-7---7--7-7-7-7-7-7-7-7-|
|------------------------------------------------------------------|
|------------------------------------------------------------------|
|------------------------------------------------------------------|
|------------------------------------------------------------------|
<br />
 x8   x8
|-7----7----9-----9-----9---9-------9-----9-|
|-7----9------7-7---7-7---7---7-7-7---7-7---|
|-------------------------------------------|
|-------------------------------------------|
|-------------------------------------------|
|-------------------------------------------|
<br />
 x8   x8
|-7----7----7-----7-----7----7-7-7-7-5-5-5-5-|
|-7----9------7-7---7-7---7--7-7-7-7-7-7-7-7-|
|--------------------------------------------|
|--------------------------------------------|
|--------------------------------------------|
|--------------------------------------------|
Bridge Rhythm
|---------------------|
|---------------------|
|---------------------|
|-0~--------2~--------|
|-0~--------2~--------|
|-0~--------2~--------|
Repeat until last bar, this kicks in:
|-----------------------------|
|-----------------------------|
|-----------------------------|
|-0-0-0-0---0-0-2-2-2-2---2-2-|
|-0-0-0-0---0-0-2-2-2-2---2-2-|
|-0-0-0-0---0-0-2-2-2-2---2-2-|
Outro lead
|--------------------------------------------------------------------------|
|-7-7-7-7-9-9-9-9-10101010-14-14-14-14-12-12-12-12-8-8-8-8-8-8-8-8-7-7-7-7-|
|-x-x-x-x-x-x-x-x-x-x-x-x---x--x--x--x--x--x--x--x-x-x-x-x-x-x-x-x-x-x-x-x-|
|-4-4-4-4-6-6-6-6-7-7-7-7--11-11-11-11--9--9--9--9-5-5-5-5-7-7-7-7-4-4-4-4-|
|--------------------------------------------------------------------------|
|--------------------------------------------------------------------------|
<br />

5. Shadow of the Day
As far as I can hear, no guitars kick in until the solos,
but some people disagree. Maybe I've mistaken the guitars for another
sound, but I don't think there's anything there guitarwise.
Solo 1
|-------|---------------------------------|
|---5---|-7---7---7---7---7---5---4---5---|
|-4---4-|---4---4---4---4---4---4---4---4-|
|-------|---------------------------------|
|-------|---------------------------------|
|-------|---------------------------------| x3
<br />
|---------------------------------|
|-5---5---4---4---4---4---4---4---|
|---4---4---4---4---4---4---4---4-|
|---------------------------------|
|---------------------------------|
|---------------------------------|
Repeat first riff 4 more times
<br />
Solo 2- solo 1 is played behind this
|----12----|-14----14----14----14----14----12----11----12----|
|-12----12-|----12----12----12----12----12----12----12----12-|
|----------|-------------------------------------------------|
|----------|-------------------------------------------------|
|----------|-------------------------------------------------|
|----------|-------------------------------------------------| x8
<br />
End song on
|-----------|     |-11~--------|
|-----------|     |------------|
|-----------|     |------------|
|-9~--------|     |------------|
|-9~--------|     |------------|
|-9~--------| and |------------|
<br />

6. What I've done, Intro/Chorus rhythm (x2)
|-----|-------------------------------------------------------------------|
|-----|-------------------------------------------------------------------|
|-----|-------------------------------------------------------------------|
|-x-x-|-8-8-8-8-8-8-7-7-8-8-8-8-8-8-10-10-7-7-7-7-7-7-7-7-5-5-5-5-5-5-7-7-|
|-x-x-|-8-8-8-8-8-8-7-7-8-8-8-8-8-8-10-10-7-7-7-7-7-7-7-7-5-5-5-5-5-5-7-7-|
|-x-x-|-8-8-8-8-8-8-7-7-8-8-8-8-8-8-10-10-7-7-7-7-7-7-7-7-5-5-5-5-5-5-7-7-|
end with
|---------|
|---------|
|---------|
|-8~------|
|-8~------|
|-8~------|
<br />
Intro/Chorus lead (thanks to Logan_B, AOL Sessions video for corrections)
|-------------------------------------------------------------------------|
|-------------------------------------------------------------------------|
|-------------------------------------------------------------------------|
|-------------------------------------------10-10-------------------------|
|-13-13-13-13-13-13-12-12-13-13-13-13-13-13-------12-12-12-12-12-12-12-12-|
|-------------------------------------------------------------------------|
(Continued)
-------------------------|
-------------------------|
-------------------------|
-------------------------|
-10-10-10-10-10-10-12-12-|
-------------------------|
No guitar in verse, repeat chorus, verse, one bar of chorus, then
variation (lead changes in same way; last chords/notes are played extra):
|-----------------------------------------------------------------------------------|
|-----------------------------------------------------------------------------------|
|-----------------------------------------------------------------------------------|
|-8-8-8-8-8-8-7-7-8-8-8-8-8-8-10-10-7-7-7-7-7-7-7-7-5-5-5-5-5-5-5-5-7-7-7-7-8-8-8-8-|
|-8-8-8-8-8-8-7-7-8-8-8-8-8-8-10-10-7-7-7-7-7-7-7-7-5-5-5-5-5-5-5-5-7-7-7-7-8-8-8-8-|
|-8-8-8-8-8-8-7-7-8-8-8-8-8-8-10-10-7-7-7-7-7-7-7-7-5-5-5-5-5-5-5-5-7-7-7-7-8-8-8-8-|
Solo/Bridge part 1 (rhythm plays chorus behind solo)
Guitar 1 (thanks to AFILEX, my original solo sucked)
|----------|----------------------------------------|
|----------|----------------------------------------|
|----------|-------------------12~---15~------------|
|-12-15-12-|-15p12-15p12-15p12-------------12-15-12-|
|----------|----------------------------------------|
|----------|----------------------------------------|
<br />
|-------------------------------------------|
|-------------------------------------------|
|-------------------12~---14~---12~---------|
|-15p12-15p12-15p12-------------------15~---|
|-------------------------------------------|
|-------------------------------------------|
Repeat both bars and end with:
|-------------------------------------------------|
|-------------------------------------------------|
|-12~---15~---------12~---------------------12~---|
|-------------12~---------12~---15p12-15~---------|
|-------------------------------------------------|
|-------------------------------------------------|
Repeat Chorus for bridge part 2; also play this riff (update 7/23):
|-----------------------------------------|
|-----------------------------------------|
|-7-7-7-7-7-7-7-7-10-10-10-10-10-10-10-10-|
|-5-5-5-5-5-5-5-5--8--8--8--8--8--8--8--8-|
|-5-5-5-5-5-5-5-5--8--8--8--8--8--8--8--8-|
|-----------------------------------------|
<br />
|-----------------------------------------|
|-----------------------------------------|
|-12-12-12-12-12-12-12-12-7-7-7-7-9-9-9-9-|
|-10-10-10-10-10-10-10-10-5-5-5-5-7-7-7-7-|
|-10-10-10-10-10-10-10-10-5-5-5-5-7-7-7-7-|
|-10-10-10-10-10-10-10-10-5-5-5-5-7-7-7-7-|
<br />
|-----------------------------------------|
|-----------------------------------------|
|-7-7-7-7-7-7-7-7-10-10-10-10-10-10-10-10-|
|-5-5-5-5-5-5-5-5--8--8--8--8--8--8--8--8-|
|-5-5-5-5-5-5-5-5--8--8--8--8--8--8--8--8-|
|-----------------------------------------|
<br />
|-------------------------------------------------------|
|-------------------------------------------------------|
|-12-12-12-12-12-12-12-12-7-7-7-7-7-7-7-7-9-9-9-9-9-9-9-|
|-10-10-10-10-10-10-10-10-5-5-5-5-5-5-5-5-7-7-7-7-7-7-7-|
|-10-10-10-10-10-10-10-10-5-5-5-5-5-5-5-5-7-7-7-7-7-7-7-|
|-10-10-10-10-10-10-10-10-5-5-5-5-5-5-5-5-7-7-7-7-7-7-7-|
keep repeating until end, ending on:
|-----------|
|-----------|
|-----------|
|-8~--------|
|-8~--------|
|-8~--------|
<br />

7. Hands Held High- not totally sure if it's a guitar,
here are the notes anyway
|-5-----5-----5---|    |-7-----7-----7---|
|---5-----5-------|    |---5-----5-------|
|-----6-----6---6-|    |-----6-----6---6-|
|-----------------|    |-----------------|
|-----------------|    |-----------------|
|-----------------| x7 |-----------------|
That is the first bar, repeat each riff whenever necessary
<br />

8. No More Sorrow

</div>
<div id="secondcol">

Thank you to Michel Franceschino, I was lost in the bridge,
his tab showed me how to play it.
Intro (melody)
|--------------------------------|
|-4----6-7---11---9---11-12---11-|
|--------------------------------|
|--------------------------------|
|--------------------------------|
|--------------------------------|
Intro (main riff)
|---------------|
|---------------|
|---------------|
|-1-1-1-1-1-1-1-|
|-1-1-1-1-1-1-1-|
|-1-1-1-1-1-1-1-| x4
Verse
|-----------------------------------------------|
|-----------------------------------------------|
|-----------------------------------------------|
|-1-1-1-1-1-1-1----1-1-1-1----1-1-1-1-1-1-1-1-1-|
|-1-1-1-1-1-1-1----1-1-1-1----1-1-1-1-1-1-1-1-1-|
|-1-1-1-1-1-1-1----1-1-1-1----1-1-1-1-1-1-1-1-1-|
Chorus
|-------------------------------------------------|
|-------------------------------------------------|
|-4-4-4-4-4-4-3-3-3-3-3-3-------------------------|
|-4-4-4-4-4-4-3-3-3-3-3-3-1-1-1-1-1-1-1-1-1-1-1-1-|
|-2-2-2-2-2-2-1-1-1-1-1-1-1-1-1-1-1-1-1-1-1-1-1-1-|
|-------------------------1-1-1-1-1-1-1-1-1-1-1-1-| x3
<br />
|-------------------------------------------------|
|-------------------------------------------------|
|-------------------------------------------------|
|-4-4-4-4-4-4-4-4-4-4-4-4-8-8-8-8-8-8-0-0-0-0-0-0-|
|-4-4-4-4-4-4-4-4-4-4-4-4-8-8-8-8-8-8-0-0-0-0-0-0-|
|-4-4-4-4-4-4-4-4-4-4-4-4-8-8-8-8-8-8-0-0-0-0-0-0-|
repeat verse, chorus, verse, chorus, then bridge:
|---------------------------------|
|---------------------------------|
|---------------------------------|
|---------------------------------|
|-0---1---0---3---2---0---1---5---|
|-0---1---0---3---2---0---1---5---| repeat however many times necessary
PM.   .   .   .   .   .   .   .
Repeat chorus, then verse for outro
<br />

9. Valentine's Day, main riff, repeat until break
|--------------------------------------------5---------------------|
|---6---8---10---8---6---8---6---6---6---8-------8---6---8---6---6-|
|-7---7---7----7---7---7---7---7---5---5---5---5---5---5---5---5---|
|------------------------------------------------------------------|
|------------------------------------------------------------------|
|------------------------------------------------------------------|
Rhythm (plays behind main riff starting at 1:26, ends at same time)
|---------------------------------|
|---------------------------------|
|---------------------------------|
|---------------------------------|
|-0-0-0-0-0-0-0-0-3-3-3-3-3-3-3-3-|
|---------------------------------|
Repeat this riff at 2:06, ending when appropriate
Outro
|-----------------------------------------------------------------|
|-----------------------------------------------------------------|
|-7-7-7-7-7-7-7-7-7-7-7-7-7-7-7-7-----------------5-5-5-5-5-5-5-5-|
|-7-7-7-7-7-7-7-7-7-7-7-7-7-7-7-7-3-3-3-3-3-3-3-3-5-5-5-5-5-5-5-5-|
|-5-5-5-5-5-5-5-5-5-5-5-5-5-5-5-5-3-3-3-3-3-3-3-3-3-3-3-3-3-3-3-3-|
|---------------------------------3-3-3-3-3-3-3-3-----------------|
<br />

10. In Between
Not much guitar in this song, but there is some in
the choruses and the bridge
Chorus
|-13-------------------|
|------14-----------16-|
|-----------13---------|
|----------------------|
|----------------------|
|----------------------|
Bridge (repeat as many times as needed)
|-14---13-----------|
|-----------16------|
|----------------16-|
|-------------------|
|-------------------|
|-------------------| x2
<br />
|-13-------------------|
|------14-----------16-|
|-----------13---------|
|----------------------|
|----------------------|
|----------------------|
<br />

11. In Pieces
Thank you to AFILEX, I had trouble getting the chords
in the beginning, and his tab was right, so that's how
I play it. The solo was a little easier to tab in my opinion.
Verse
|------------|--------------|--------------|---------------|
|-11---9--9--|-11---9--9--9-|-11---9--9--9-|-9--9--9--8--8-|
|-10---8--8--|-10---8--8--8-|-10---8--8--8-|-8--8--8--7--7-|
|-8----6--6--|-8----6--6--6-|-8----6--6--6-|-6--6--6--5--5-|
|------------|--------------|--------------|---------------|
|------------|--------------|--------------|---------------|
<br />
|--------------|--------------|------------|------------|
|-9--9--9--11--|-9--9--9--11--|-9--9--9--9-|-9--9--8--8-|
|-8--8--8--10--|-8--8--8--10--|-8--8--8--8-|-8--8--7--7-|
|-6--6--6--8---|-6--6--6--8---|-6--6--6--6-|-6--6--5--5-|
|--------------|--------------|------------|------------|
|--------------|--------------|------------|------------| x2
<br />
|--------------|--------------|--------------|------------|
|-9--11--9--9--|-9--11--9--9--|-9--11--9--9--|-9--9--8--8-|
|-8--10--8--8--|-8--10--8--8--|-8--10--8--8--|-8--8--7--7-|
|-6--8---6--6--|-6--8---6--6--|-6--8---6--6--|-6--6--5--5-|
|--------------|--------------|--------------|------------|
|--------------|--------------|--------------|------------|
Chorus 1
|----------------|----------------|------------------|------------------|
|-13--14--16--16-|-13--14--16--16-|--13--13--13--13--|--11--11--11--11--|
|-12--13--15--15-|-12--13--15--15-|--12--12--12--12--|--10--10--10--10--|
|-10--11--13--13-|-10--11--13--13-|--10--10--10--10--|--8---8---8---8---|
|----------------|----------------|------------------|------------------|
|----------------|----------------|------------------|------------------| x2
Solo Lead (Play 17p15 part 6x, really fast)
|------------|----------|
|------------|----------|
|------------|----------|
|17p15-------|-17-------|
|------17p15-|----17-15-|
|------------|----------|x3
<br />
|-------------------------------------------------|
|-------------------------------------------------|
|-------------------------------------------------|
|-18-18-18-18-18-18-18-18-17-17-17-17-17-17-17-17-|
|-------------------------------------------------|
|-------------------------------------------------|
<br />
(Play first part below 4x)
|-------------|----------------------------|
|-------------|----------------------------|
|-------------|-------15-17-17p15-------17-|
|-17p15-------|-15-17-------------17p15----|
|-------17p15-|----------------------------|
|-------------|----------------------------| x2
<br />
|-------------------------------|
|-------------------------------|
|-------15-17-17p15-------15-17-|
|-15-17-------------17p15-------|
|-------------------------------|
|-------------------------------| x2
<br />
(Play 17p15 part 4x, notice it is up 1 string from before)
|-------------|-------------------------|
|-------------|-------------------------|
|-17p15-------|-17-17-17-17-17-17-17-17-|
|-------17p15-|-------------------------|
|-------------|-------------------------|
|-------------|-------------------------|
Solo Rhythm (comes in during second half of solo), each note is 16x
|-------------------------------|
|-------------------------------|
|--10---------------------------|
|--10------11------8------10----|
|---8------11------8------10----|
|----------11------8------10----|
Chorus 2 is same as solo rhythm, but played twice
Lead in chorus 2 plays this with some distortion/tremolo picking (listen closely):
|--------------------------------|
|--17------17--------------------|
|------------------17------15----|
|--------------------------------|
|--------------------------------|
|--------------------------------|
Each note is 32x, if I counted correctly
For outro, repeat chorus 1 riff
<br />

12. The Little Things Give You Away
Thank you to Stephen McGuire, once again I suck at finding
chords that aren't power chords, but his intro and verse
are perfect on this site.  I tweaked the first part to higher
strings to make it even easier.
Intro/verse (strum lightly), acoustic guitar (gtr 1)
|----------------------------------------------------------------|
|----------------------------------------------------------------|
|-5-5-5-5-5-5-5-5-5-5-4-2----------------------------------------|
|-2-2-2-2-2-2-2—2-2-2-2-2—4--4--4--4-5-5--5-5-5-4-4--4-4-4-2-2---|
|-0-0-0-0-0-0-0-0-0-0-0-0-0--0--0--0-0-0--0-0-0-0-0--0-0-0-0-0---|
|-------------------------0—-0--0--0-0-0--0-0-0-0-0--0-0-0-0-0---| x4
Pre-chorus
|----------------------------------------------------------------------|
|----------------------------------------------------------------------|
|----------------------------------------------------------------------|
|-12-12-12-12-12-12-9-9-9-9-9-9-4—-4—-4--4-5-5--5-5-5-4-4--4-4-4-2-2---|
|-10-10-10-10-10-10-7-7-7-7-7-7-0--0--0--0-0-0--0-0-0-0-0--0-0-0-0-0---|
|-10-10-10-10-10-10-7-7-7-7-7-7-0--0--0--0-0-0--0-0-0-0-0--0-0-0-0-0---|
<br />
|-----------------------|
|-----------------------|
|-----------------------|
|-12-12-12-12-12-12-4~--|
|-10-10-10-10-10-10-0~--|
|-10-10-10-10-10-10-0~--|
Chorus 1
|-------------------------|
|-------------------------|
|-------------------------|
|-7-7-7-5-5-5-0-0-0-2-2-2-|
|-7-7-7-5-5-5-0-0-0-2-2-2-|
|-7-7-7-5-5-5-0-0-0-2-2-2-| x2
<br />
|---------------------------------------------------|
|---------------------------------------------------|
|---------------------------------------------------|
|-7-7-7-5-5-5-10—10-10-0—0-0-3-3-3-3-3-3-5-5-5-5~---|
|-7-7-7-5-5-5-10-10-10-0-0-0-3-3-3-3-3-3-5-5-5-5~---|
|-7-7-7-5-5-5-10-10-10-0-0-0-3-3-3-3-3-3-5-5-5-5~---|
Repeat Verse, guitar 2 plays this in second pre-chorus:
|---------------------------------------------------------------------------------|
|---------------------------------------------------------------------------------|
|-9-9-9-9-9-9-9-9-9-9-9-12-12-11-11-11-11--11-12-12--12-12-12-11-11--11-11-11-9-9-|
|-x-x-x-x-x-x-x-x-x-x-x—-x—-x--x--x--x--x---x--x--x---x--x--x--x--x---x--x--x-x-x-|
|-7-7-7-7-7-7-7-7-7-7-7-10-10—-9--9--9--9---9-10-10--10-10-10--9--9---9--9--9-7-7-|
|---------------------------------------------------------------------------------|
<br />
|---------------------------|
|---------------------------|
|-9-9-9-9-9-9-9-9-9-9-9-9-9-|
|-x-x-x-x-x-x-x-x-x-x-x—x-x-|
|-7-7-7-7-7-7-7-7-7-7-7-7-7-|
|---------------------------|
Repeat Chorus 1, except with this variation on last bar:
|----------------------------------------------------|
|----------------------------------------------------|
|----------------------------------------------------|
|-7-7-7-5-5-5-10—10-10-0-0-0-3—3-3-3-3-3-2-2-2—5-5—5-|
|-7-7-7-5-5-5-10-10-10-0-0-0-3-3-3-3-3-3-2-2-2—5-5-5-|
|-7-7-7-5-5-5-10-10-10-0-0-0-3-3-3-3-3-3-2-2-2—5-5—5-|
Repeat again, but with this variation on the same bar:
|------------------------------------------------------------------|
|------------------------------------------------------------------|
|------------------------------------------------------------------|
|-7-7-7-5-5-5-10-10-10-0-0-0-3-3-3-3-3-3-3-3-3—3-3-3—5-5-5-5—5—5-5-|
|-7-7-7-5-5-5-10-10-10-0-0-0-3-3-3-3—3-3-3-3-3—3-3—3-5-5-5-5-5-5-5-|
|-7-7-7-5-5-5-10-10-10-0-0-0-3-3-3-3-3-3-3-3-3-3-3-3—5-5-5—5—5—5-5-|
Guitar 2 also adds this to the second chorus:
|----------------------------|
|-10-10—10-8-8-8-------------|
|--x--x--x-x-x-x-7-7-7-9-9-9-|
|--7--7--7-5-5-5-x-x-x-x-x-x-|
|----------------5-5-5-7-7-7-|
|----------------------------| x2
Ending variation 1
|----------------------------------------------------------------|
|-10-10-10-8-8-8-13-13-13----------------------------------------|
|--x--x--x-x-x-x--x--x--x-7-7-7-10-10-10-10—10-10-9—9—9—12—12-12-|
|--7--7--7-5-5-5-10-10-10-x-x-x--x--x--x--x--x--x-x-x-x--x--x--x-|
|-------------------------5-5-5--8--8--8--8--8--8-7—7-7-10-10—10-|
|----------------------------------------------------------------|
Ending variation 2 (notice the strum counts under last two notes)
|----------------------------------------|
|-10-10-10-8-8-8-13-13-13----------------|
|--x--x--x-x-x-x--x--x--x-7-7-7--10--12--|
|--7--7--7-5-5-5-10-10-10-x-x-x---x---x--|
|-------------------------5-5-5—--8--10--|
|----------------------------------------|
                                 x12 x7
Bridge Part 1 (pre-solo)
|---------------------------|
|---------------------------|
|---------------------------|
|-5-4-2~-------2-2-4~-------|
|---------------------------|
|---------------------------|
Bridge Part 2, Solo
|-------|-------7--7-5---5-------------------7~-7-5---5~------------|
|-8-7-5-|-5--5---------8----7^---8-7-5-5~-5~--------8----7^-8-7-5-5-|
|-------|-----------------------------------------------------------|
|-------|-----------------------------------------------------------|
|-------|-----------------------------------------------------------|
|-------|-----------------------------------------------------------|
(Continued)
-----------------10-10-10------------10---10-14--14-10--10-12-10-12-14-12-14-|
---5-7-5-7-8-7-8----------10-10-10-10--10------10-----10---------------------|
-7---------------------------------------------------------------------------|
-----------------------------------------------------------------------------|
-----------------------------------------------------------------------------|
-----------------------------------------------------------------------------|
(Continued)
-15-14-15-17-17-17-------------------------|
-------------------19~---20--19—15~--15~---|
-------------------------------------------|
-------------------------------------------|
-------------------------------------------|
-------------------------------------------|
Solo repeats this until end
|-----------------------|
|-15------15--17-----17-|
|-----14----------14----|
|-----------------------|
|-----------------------|
|-----------------------|
Also, another riff played halfway through outro:
|-------19-17-15-17-19----------19-17-|
|-15-17----------------17-15-17-------|
|-------------------------------------|
|-------------------------------------|
|-------------------------------------|
|-------------------------------------|
Guitar 3 (electric) plays this as rhythm for bridge part 2, outro
|-------------------------------------------------------------------------|
|-------------------------------------------------------------------------|
|-------------------------------------------------------------------------|
|-10-10-10-10-10-10-10-10-10-10-10-10-12-12-12-12-12-12-12-12-12-12-12-12-|
|-10-10-10-10-10-10-10-10-10—10-10-10-12-12-12-12-12-12-12-12-12-12-12-12-|
|-10-10-10-10-10-10-10-10-10-10-10-10-12-12-12-12-12-12-12-12-12-12-12-12-|
<br />
13. What I've Done (Live)
This is an Itunes bonus track, play it the exact same as the studio version,
anyway.  I put this in case anyone was curious if there were any changes.
<br />
Well, that's it.  For those who pre-ordered on Itunes, I will add
No Roads Left when I get to it.  Enjoy!
<br />
Again, if you have any problems, suggestions,
corrections, etc., post a comment, I will check the

</pre>comments to see how I can improve my tabs.  Thanks!


variations - click chord images
Transpose chords:
Tuning:
Cool service:
View: Size:
A  A  A
Rating:
Layout:
  • Currently 0/5 Stars.
  • 1
  • 2
  • 3
  • 4
  • 5
 
Accuracy:
  • Currently 4.6/5 Stars.
  • 1
  • 2
  • 3
  • 4
  • 5
 
click stars to rate
Chordie recommends:
Check out JamPlay.com for online video guitar lessons
Songbook:
Login to add this song to your songbook
Support the artist
Preview/buy this song
MSN Music
Why this non-profit ad?

 
login to add comments/video/corrections