-----------------------------------------------------------------------

-----------------------------------------------------------------------


 1
Guitar : Clean
 2
Guitar : Distorted
 3
Guitar : Distorted unless says clean

Intro:
 1
C#|---------------------------0--00--0--00--0--00--0-0--00-|
G#|---------------------------1--11--1--11--1--11--1/3--33-|
E |---------------------------0--00--0--00--0--00--0-0--00-| x2
B |---9------7-----5-----4----2--22--2--22--2--22--2/4--44-|
F#|-----10-----9-----7-----5--3--33--3--33--3--33--3/5--55-|
C#|-0------0-----0-----0-----------------------------------|


Verse:
 1
C#|---------------------------0--00--0--00--0--00--0-0--00-|
G#|---------------------------1--11--1--11--1--11--1/3--33-|
E |---------------------------0--00--0--00--0--00--0-0--00-| x3
B |---9------7-----5-----4----2--22--2--22--2--22--2/4--44-|
F#|-----10-----9-----7-----5--3--33--3--33--3--33--3/5--55-|
C#|-0------0-----0-----0-----------------------------------|


 1
C#|---------------------------0--00--0--00--0--------------|
G#|---------------------------1--11--1--11--1--------------|
E |---------------------------2--22--2--22--2--(hold chord)|
B |---9------7-----5-----4----2--22--2--22--2--------------|
F#|-----10-----9-----7-----5--0--00--0--00--0--------------|
C#|-0------0-----0-----0-----------------------------------|

 2
                                                        |
C#|-----------------------------(hold chords)--------------|
G#|--------------------------------------------------------|
E |---------------------------5-------------5--------------|
B |---------------------------7-------------7--------------|
F#|---------------------------7-------------7--------------|
C#|---------------------------5-------------5--------------|


Chorus 1:
 1
C#|---------x-0-----|
G#|---------x-1-----|
E |---------x-2--4--|
B |---------x-2--4--|
F#|---------x-0--2--|
C#|---------x-------|

 2
                 |
C#|-----------------|
G#|-----------------|
E |-----------------|
B |---------x-7--9--|
F#|---------x-7--9--|
C#|---------x-5--7--|

 3
                 |
C#|-----------------|
G#|-----------------|
E |-----------9--11-|
B |-----------------|
F#|-----------7--9--|
C#|-----------------|

I scream into the...

 1
C#|-0-0000--0-0000--2-2222--2-2222--0-0000--0-0000--0-0000-|
G#|-1-1111--1-1111--3-3333--3-3333--0-0000--0-0000--0-0000-|
E |-0-0000--0-0000--2-2222--2-2222--0-0000--0-0000--0-0000-|
B |-2-2222--2-2222--0-0000--0-0000--2-2222--2-2222--2-2222-|
F#|-3-3333--3-3333------------------2-2222--2-2222--2-2222-|
C#|---------------------------------0-0000--0-0000--0-0000-|

 2
                                                        |
C#|--------------------------------------------------------|
G#|-5---------------7--------------------------------------|
E |-5---------------7---------------0----------------------|
B |-5---------------7---------------2----------------------|
F#|-3---------------5---------------2----------------------|
C#|---------------------------------0----------------------|

 3
                                                        |
C#|--------------------------------------------------------|
G#|--------------------------------------------------------|
E |-16~-------------14~-------------14--14--14--14--13-----|
B |--------------------------------------------------------|
F#|-14~-------------12~-------------12--12--12--12--11-----|
C#|--------------------------------------------------------|

night...

 1
   plays nothing
 2
C#|-------------------|
G#|-------------------|
E |---9------9----7---|
B |---9------9----7---|
F#|---7------7----5---|
C#|-------------------|

 3
                   |
C#|-------------------|
G#|-------------------|
E |---21-----19----16-|
B |-------------------|
F#|---19-----17----14-|
C#|-------------------|

...lights will not...

 1
C#|-0-0000--0-0000--2-2222--2-2222--0-0000--0-0000--0-0000-|
G#|-1-1111--1-1111--3-3333--3-3333--0-0000--0-0000--0-0000-|
E |-0-0000--0-0000--2-2222--2-2222--0-0000--0-0000--0-0000-|
B |-2-2222--2-2222--0-0000--0-0000--2-2222--2-2222--2-2222-|
F#|-3-3333--3-3333------------------2-2222--2-2222--2-2222-|
C#|---------------------------------0-0000--0-0000--0-0000-|

 2
                                                        |
C#|--------------------------------------------------------|
G#|-5---------------7--------------------------------------|
E |-5---------------7---------------0----------------------|
B |-5---------------7---------------2----------------------|
F#|-3---------------5---------------2----------------------|
C#|---------------------------------0----------------------|

 3
                                                        |
C#|--------------------------------------------------------|
G#|--------------------------------------------------------|
E |-17~-------------19~-------------14--14--14--14--13-----|
B |--------------------------------------------------------|
F#|-15~-------------17~-------------12--12--12--12--11-----|
C#|--------------------------------------------------------|

guide...

 1
   plays nothing
 2
C#|-------------------|
G#|-------------------|
E |---9------9----7---|
B |---9------9----7---|
F#|---7------7----5---|
C#|-------------------|

 3
                   |
C#|-------------------|
G#|-------------------|
E |---21-----19----16-|
B |-------------------|
F#|---19-----17----14-|
C#|-------------------|

...let....memo-ries...

 1
C#|-0-0000--0-0000--2-2222--2-2222--0-0-0-0-0-0-0----------2--|
G#|-1-1111--1-1111--3-3333--3-3333--1-1-1-1-1-1-1-(long----3--|
E |-0-0000--0-0000--2-2222--2-2222--2-2-2-2-2-2-0-chord)---2--|
B |-2-2222--2-2222--0-0000--0-0000--2-2-2-2-2-2-2----------0--|
F#|-3-3333--3-3333------------------0-0-0-0-0-0-3-------------|
C#|-----------------------------------------------------------|

 2
                                                           |
C#|-----------------------------------------------------------|
G#|-5---------------7-----------------------------------------|
E |-5---------------7-----------------------------------------|
B |-5---------------7---------------7-7-7-7-7-9-10------------|
F#|-3---------------5---------------7-7-7-7-7-9-10------------|
C#|---------------------------------5-5-5-5-5-7-8-------------|

 3
                                                           |
C#|-----------------------------------------------------------|
G#|-----------------------------------------------------------|
E |-17~-------------19~---------------------------------------|
B |-----------------------------------------------------------|
F#|-15~-------------17~---------------------------------------|
C#|-----------------------------------------------------------|

go... view... ...please

Break:
C#|---------------------------0--0000--0--0000--0--0000--0-0-0000-|
G#|---------------------------1--1111--1--1111--1--1111--1/3-3333-|
E |---------------------------0--0000--0--0000--0--0000--0-0-0000-|
B |---9------7-----5-----4----2--2222--2--2222--2--2222--2/4-4444-|
F#|-----10-----9-----7-----5--3--3333--3--3333--3--3333--3/5-5555-|
C#|-0------0-----0-----0------0--0000--0--0000--0--0000--0-0-0000-|


*Repeat verse as above but add:

 3
  Clean
C#|---------------------------------|
G#|---------------13p12h13p12h13p12-|
E |-----------------(repeatedly)----|
B |---------------------------------|
F#|---------------------------------|
C#|---------------------------------|

feel it no more...

Chorus 2:
 1
C#|---------x-0-----|
G#|---------x-1-----|
E |---------x-2--4--|
B |---------x-2--4--|
F#|---------x-0--2--|
C#|---------x-------|

 2
                 |
C#|-----------------|
G#|-----------------|
E |-----------------|
B |---------x-7--9--|
F#|---------x-7--9--|
C#|---------x-5--7--|

 3
                 |
C#|-----------------|
G#|-----------------|
E |-----------9--11-|
B |-----------------|
F#|-----------7--9--|
C#|-----------------|

I scream into the...

 1
C#|-0-0000--0-0000--2-2222--2-2222--0-0000--0-0000--0-0000-|
G#|-1-1111--1-1111--3-3333--3-3333--0-0000--0-0000--0-0000-|
E |-0-0000--0-0000--2-2222--2-2222--0-0000--0-0000--0-0000-|
B |-2-2222--2-2222--0-0000--0-0000--2-2222--2-2222--2-2222-|
F#|-3-3333--3-3333------------------2-2222--2-2222--2-2222-|
C#|---------------------------------0-0000--0-0000--0-0000-|

 2
                                                        |
C#|--------------------------------------------------------|
G#|-5---------------7--------------------------------------|
E |-5---------------7---------------0----------------------|
B |-5---------------7---------------2----------------------|
F#|-3---------------5---------------2----------------------|
C#|---------------------------------0----------------------|

 3
                                                        |
C#|--------------------------------------------------------|
G#|--------------------------------------------------------|
E |-16~-------------14~-------------14--14--14--14--13-----|
B |--------------------------------------------------------|
F#|-14~-------------12~-------------12--12--12--12--11-----|
C#|--------------------------------------------------------|

night...

 1
   plays nothing
 2
C#|-------------------|
G#|-------------------|
E |---9------9----7---|
B |---9------9----7---|
F#|---7------7----5---|
C#|-------------------|

 3
                   |
C#|-------------------|
G#|-------------------|
E |---21-----19----16-|
B |-------------------|
F#|---19-----17----14-|
C#|-------------------|

...lights will not...

 1
C#|-0-0000--0-0000--2-2222--2-2222--0-0000--0-0000--0-0000-|
G#|-1-1111--1-1111--3-3333--3-3333--0-0000--0-0000--0-0000-|
E |-0-0000--0-0000--2-2222--2-2222--0-0000--0-0000--0-0000-|
B |-2-2222--2-2222--0-0000--0-0000--2-2222--2-2222--2-2222-|
F#|-3-3333--3-3333------------------2-2222--2-2222--2-2222-|
C#|---------------------------------0-0000--0-0000--0-0000-|

 2
                                                        |
C#|--------------------------------------------------------|
G#|-5---------------7--------------------------------------|
E |-5---------------7---------------0----------------------|
B |-5---------------7---------------2----------------------|
F#|-3---------------5---------------2----------------------|
C#|---------------------------------0----------------------|

 3
                                                        |
C#|--------------------------------------------------------|
G#|--------------------------------------------------------|
E |-17~-------------19~-------------14--14--14--14--13-----|
B |--------------------------------------------------------|
F#|-15~-------------17~-------------12--12--12--12--11-----|
C#|--------------------------------------------------------|

guide...

 1
   plays nothing
 2
C#|-------------------|
G#|-------------------|
E |---9------9----7---|
B |---9------9----7---|
F#|---7------7----5---|
C#|-------------------|

 3
                   |
C#|-------------------|
G#|-------------------|
E |---21-----19----16-|
B |-------------------|
F#|---19-----17----14-|
C#|-------------------|

...let....memo-ries...

 1
C#|-0-0000--0-0000--2-2222--2-2222--0-0-0-0-0-0-|
G#|-1-1111--1-1111--3-3333--3-3333--1-1-1-1-1-1-|
E |-0-0000--0-0000--2-2222--2-2222--2-2-2-2-2-2-|
B |-2-2222--2-2222--0-0000--0-0000--2-2-2-2-2-2-|
F#|-3-3333--3-3333------------------0-0-0-0-0-0-|
C#|---------------------------------------------|

 2
                                             |
C#|---------------------------------------------|
G#|-5---------------7---------------------------|
E |-5---------------7---------------------------|
B |-5---------------7---------------7-7-7-7-7-9-|
F#|-3---------------5---------------7-7-7-7-7-9-|
C#|---------------------------------5-5-5-5-5-7-|

 3
                                             |
C#|---------------------------------------------|
G#|---------------------------------------------|
E |-17~-------------19~-------------------------|
B |---------------------------------------------|
F#|-15~-------------17~-------------------------|
C#|---------------------------------------------|

go...

 1
C#|-0-0000--0-0000--0-0-0-0-0-0--2-2222--2-2222--|
G#|-1-1111--1-1111--1-1-1-1-1-1--3-3333--3-3333--|
E |-0-0000--0-0000--0-0-0-0-0-0--2-2222--2-2222--|
B |-2-2222--2-2222--2-2-2-2-2-2--0-0000--0-0000--|
F#|-3-3333--3-3333--3-3-3-3-3-3------------------|
C#|----------------------------------------------|

 2
                                              |
C#|----------------------------------------------|
G#|-5--------------------------------------------|
E |-5---------------5-5-5-5-5-5--7---------------|
B |-5---------------5-5-5-5-5-5--7---------------|
F#|-3---------------3-3-3-3-3-3--5---------------|
C#|----------------------------------------------|

 3
                                              |
C#|----------------------------------------------|
G#|----------------------------------------------|
E |-----------------17-----------19--------------|
B |----------------------------------------------|
F#|-----------------15-----------17--------------|
C#|----------------------------------------------|


Bridge:
 1
C#|------------------7-7-------------------------------|
G#|8-8-8-8--10101010-8-8-5--5-5-5-5--5--5-5-5-5---7--7-|
E |9-9-9-9--9-9-9-9--9-9-5--5-5-5-5--5--5-5-5-5---7--7-|
B |9-9-9-9--9-9-9-9--9-9-5--5-5-5-5--5--5-5-5-5---7--7-| x4
F#|7-7-7-7--7-7-7-7--7-7-3--3-3-3-3--3--3-3-3-3---5--5-|
C#|----------------------------------------------------|

 2
                                                    |
C#|----------------------------------------------------|
G#|-----------------------15-----------15--------------|
E |9-9-9-9--9-9-9-9--9-9--------12----------12----11-12|
B |9-9-9-9--9-9-9-9--9-9-------------------------------| x4
F#|7-7-7-7--7-7-7-7--7-7-------------------------------|
C#|----------------------------------------------------|

 3
                                                    |
C#|----------------------------------------------------|
G#|----------------------------------------------------|
E |12121212-14141414-1616-19-19191919-19-19191919-11-12|
B |----------------------------------------------------| x4
F#|10101010-12121212-1414-17-17171717-17-17171717-9--10|
C#|----------------------------------------------------|


 1
C#|------------------7-7--0-----------0----------0---|
G#|8-8-8-8--10101010-8-8--1-------------1---3-0--1---|
E |9-9-9-9--9-9-9-9--9-9--2-(hold)---------------0---|
B |9-9-9-9--9-9-9-9--9-9--2---------2-----2------2---|
F#|7-7-7-7--7-7-7-7--7-7--0----------------------0---|
C#|--------------------------------------------------|

 2
                                                  |
C#|--------------------------------------------------|
G#|--------------------------------------------------|
E |9-9-9-9--9-9-9-9--9-9-----------------------------|
B |9-9-9-9--9-9-9-9--9-9--7--------------------------|
F#|7-7-7-7--7-7-7-7--7-7--7--(hold)------------------|
C#|-----------------------5--------------------------|

 3
                                                  |
C#|--------------------------------------------------|
G#|--------------------------------------------------|
E |12121212-14141414-1616-12-------------------------|
B |--------------------------(hold)------------------|
F#|10101010-12121212-1414-10-------------------------|
C#|--------------------------------------------------|


 1
C#|----------0-----------0------x-x-x-x-x-x-xx-x--x--0-0-------------|
G#|------3-----3-----------3----x-x-x-x-x-x-xx-x--x--1-1-------------|
E |--------0-----0---0-------0--x-x-x-x-x-x-xx-x--x--2-2--4----------|
B |--------------------4--------x-x-x-x-x-x-xx-x--x--2-2--4----------|
F#|0-2-3-----------5------------x-x-x-x-x-x-xx-x--x--0-0--2----------|
C#|-----------------------------x-x-x-x-x-x-xx-x--x------------------|

 2
                                                                  |
C#|------------------------------------------------------------------|
G#|------------------------------------------------------------------|
E |------------------------------------------------------------------|
B |-----------------------------7-7-7-7-7-7-xx-x--x--7-7--9----------|
F#|-----------------------------7-7-7-7-7-7-xx-x--x--7-7--9----------|
C#|-----------------------------5-5-5-5-5-5-xx-x--x--5-5--7----------|

PM . . . . . . |
 3
                                                                  |
C#|------------------------------------------------------------------|
G#|------------------------------------------------------------------|
E |----------------------------------------------------------16h18h20|
B |--------------------------------------------------16h18h19--------|
F#|------------------------------------------------------------------|
C#|------------------------------------------------------------------|


Chorus 3:

 1
C#|-0-0000--0-0000--2-2222--2-2222--0-0000--0-0000--0-0000-|
G#|-1-1111--1-1111--3-3333--3-3333--0-0000--0-0000--0-0000-|
E |-0-0000--0-0000--2-2222--2-2222--0-0000--0-0000--0-0000-|
B |-2-2222--2-2222--0-0000--0-0000--2-2222--2-2222--2-2222-|
F#|-3-3333--3-3333------------------2-2222--2-2222--2-2222-|
C#|---------------------------------0-0000--0-0000--0-0000-|

 2
                                                        |
C#|--------------------------------------------------------|
G#|-5---------------7--------------------------------------|
E |-5---------------7---------------0----------------------|
B |-5---------------7---------------2----------------------|
F#|-3---------------5---------------2----------------------|
C#|---------------------------------0----------------------|

 3
                                                        |
C#|--------------------------------------------------------|
G#|--------------------------------------------------------|
E |-21~-------------19~-------------14--14--14--14--13-----|
B |--------------------------------------------------------|
F#|-19~-------------17~-------------12--12--12--12--11-----|
C#|--------------------------------------------------------|


 1
   plays nothing
 2
C#|-------------------|
G#|-------------------|
E |---9------9----7---|
B |---9------9----7---|
F#|---7------7----5---|
C#|-------------------|

 3
                   |
C#|-------------------|
G#|-------------------|
E |---21-----19----16-|
B |-------------------|
F#|---19-----17----14-|
C#|-------------------|


 1
C#|-0-0000--0-0000--2-2222--2-2222--0-0000--0-0000--0-0000-|
G#|-1-1111--1-1111--3-3333--3-3333--0-0000--0-0000--0-0000-|
E |-0-0000--0-0000--2-2222--2-2222--0-0000--0-0000--0-0000-|
B |-2-2222--2-2222--0-0000--0-0000--2-2222--2-2222--2-2222-|
F#|-3-3333--3-3333------------------2-2222--2-2222--2-2222-|
C#|---------------------------------0-0000--0-0000--0-0000-|

 2
                                                        |
C#|--------------------------------------------------------|
G#|-5---------------7--------------------------------------|
E |-5---------------7---------------0----------------------|
B |-5---------------7---------------2----------------------|
F#|-3---------------5---------------2----------------------|
C#|---------------------------------0----------------------|

 3
                                                        |
C#|--------------------------------------------------------|
G#|--------------------------------------------------------|
E |-17~-------------19~-------------14--14--14--14--13-----|
B |--------------------------------------------------------|
F#|-15~-------------17~-------------12--12--12--12--11-----|
C#|--------------------------------------------------------|


 1
   plays nothing
 2
C#|-------------------|
G#|-------------------|
E |---9------9----7---|
B |---9------9----7---|
F#|---7------7----5---|
C#|-------------------|

 3
                   |
C#|-------------------|
G#|-------------------|
E |---21-----19----16-|
B |-------------------|
F#|---19-----17----14-|
C#|-------------------|


 1
C#|-0-0000--0-0000--2-2222--2-2222--0-0-0-0-0-0-|
G#|-1-1111--1-1111--3-3333--3-3333--1-1-1-1-1-1-|
E |-0-0000--0-0000--2-2222--2-2222--2-2-2-2-2-2-|
B |-2-2222--2-2222--0-0000--0-0000--2-2-2-2-2-2-|
F#|-3-3333--3-3333------------------0-0-0-0-0-0-|
C#|---------------------------------------------|

 2
                                             |
C#|---------------------------------------------|
G#|-5---------------7---------------------------|
E |-5---------------7---------------------------|
B |-5---------------7---------------7-7-7-7-7-9-|
F#|-3---------------5---------------7-7-7-7-7-9-|
C#|---------------------------------5-5-5-5-5-7-|

 3
                                             |
C#|---------------------------------------------|
G#|---------------------------------------------|
E |-17~-------------19~-------------16--16-14-11|
B |---------------------------------------------|
F#|-15~-------------17~-------------14--14-12-9-|
C#|---------------------------------------------|


 1
C#|-0-0000--0-0000--0-0000--0-0000--2-2222--2-2222--|
G#|-1-1111--1-1111--1-1111--1-1111--3-3333--3-3333--|
E |-0-0000--0-0000--0-0000--0-0000--2-2222--2-2222--|
B |-2-2222--2-2222--2-2222--2-2222--0-0000--0-0000--|
F#|-3-3333--3-3333--3-3333--3-3333------------------|
C#|-------------------------------------------------|

 2
                                                 |
C#|-------------------------------------------------|
G#|-5-------5-------5-------5-------7-------7-------|
E |-5-------5-------5-------5-------7-------7-------|
B |-5-------5-------5-------5-------7-------7-------|
F#|-3-------3-------3-------3-------5-------5-------|
C#|-------------------------------------------------|

 3
                                                 |
C#|-------------------------------------------------|
G#|-------------------------------------------------|
E |-12----12-14-12-11-12-14---16-----------14-------|
B |---------(very fast)-----------------------------|
F#|-10------------------------14-----------12-------|
C#|-------------------------------------------------|

Note: Tab for gtr 3 is not aligned with gts 1 & 2

 1
C#|-0-0-0-0-0-0--0------------2----------------------7--|
G#|-1-1-1-1-1-1--1-(long------3----------------------8--|
E |-2-2-2-2-2-2--0--hold)-----2-(hold)---------------9--|
B |-2-2-2-2-2-2--2------------0---------9-------7----9--|
F#|-0-0-0-0-0-0--3------------------------10------9--7--|
C#|-----------------------------------0------0-------0--|

 2
                                                     |
C#|-----------------------------------------------------|
G#|--------------5--------------------------------------|
E |--------------5-(long--------------------------------|
B |-7-7-7-7-7-7--5--hold)-------------------------------|
F#|-7-7-7-7-7-7--3--------------------------------------|
C#|-5-5-5-5-5-5-----------------------------------------|

 3
                                                     |
C#|-----------------------------------------------------|
G#|-----------------------------------------------------|
E |-9--14-12-11--12-------------------------------------|
B |-----------------------------------------------------|
F#|-7--12-10-9---10-------------------------------------|
C#|-----------------------------------------------------|

...then I'll...

|h hammer on
|p pull off
|/ slide up
| . PM (palm mute)
| x Mute note

Problems or anything, feel free to email.
===================================================================


variations - click chord images
Transpose chords:
Tuning:
Cool service:
View: Size:
A  A  A
Rating:
Layout:
  • Currently 0/5 Stars.
  • 1
  • 2
  • 3
  • 4
  • 5
 
Accuracy:
  • Currently 0/5 Stars.
  • 1
  • 2
  • 3
  • 4
  • 5
 
click stars to rate
Chordie recommends:
Check out JamPlay.com for online video guitar lessons
Songbook:
Login to add this song to your songbook
Support the artist
Preview/buy this song
MSN Music
Why this non-profit ad?

 
login to add comments/video/corrections