Guitar Tabs, Chords and Lyrics


Ryanadam-lacienegajustsmiled  Misc

-------------------------------------------------------------------------



-------------------------------------------------------------------------


e |----3-------3-------3-------


b |----1-------1-------1-------


g |----0-------0-------0-------


d |----3-------0------(x)------


a |----0-------x-------3-------


E |----x-------3-------x-------


e |----3-------3-------0-------


b |----1-------1-------1-------


g |----0-------0-------2-------


d |---(2)------0-------2-------


a |----3-------2-------0-------


E |----x-------x-------x-------

       [Amin]        [G]        [Fmaj]                                                        
e |---(3)------3-------3-------
b |----1-------3-------1-------
g |----2-------0-------2-------
d |----2-------0-------3-------
a |----0-------x-------0-------
E |----x-------3-------x-------

PART 4:
Cadd? Fmaj? Gmaj?
e |----3-------3-------3-------
b |----1-------1-------1-------
g |----0-------0-------0-------
d |---(x)------3-------0-------
a |----3-------0-------x-------
E |----x-------x-------3-------

Note: These are the same chords found in part 1, except the order and
cadence are different.
PART 4A (riff played over part 4)
    [C]            [F]        [C]      [C]              [F]    [C5]                               
e |-------------------------|-------------------------
b |-------------------------|-------------------------
g |-------------0-----------|-------------0-2-/-5-----
d |-0h20h2--0h2-2-----------|-0h20h2--0h2-2-3-/-5-----
a |-3--3----3-----0-----0h3-|-3--3----3---------------
E |---------------1---3-----|-------------------------

Note: This riff is not as difficult as it may appear.
Basically the riff is all on hammer-ons. I've posted the chord
shapes to position your hands in to make the hammer-ons as logical as possible.
Also note that the progression repeats it self, I've tried to show this by
placeing a horizontal bar where the riff begins the repeats.
LYRICS
(1) "Oh the night... here it comes again"
It's on with the jeans, the jacket and shirt
How'd I end up feeing so bad
For (2) such a little girl
(1) And I hold you close in the back of my mind
Feels so good but damn it makes me hurt
And I'm too scared to know how I (2) feel about you now
(1) Las cienega just smiled... "see ya around"
(1) And I hold you close in the back of my mind
And raise my glass 'cause either way I'm dead
Neither of you really help me to (3) sleep anymore
(3) One breaks my body and the other breaks my soul
(1)La cienega just smiles as it waves goodbye
[4]    (1) "Oh the night... here it comes again"
It's off with the jeans, the jacket and the shirt
How'd I end up feeling so bad
For (2) such a little girl
(1) And I hold you close in the back of my mind
Feels so good but damn it makes me hurt
And I'm too scared to know how I (3) feel about you now
(3) How I feel about you now
(1) La cienega just smiles and says, "I'll see you around"
[4]                                                                                  
-------------------------------------------------------------------------

Questions, Comments, Corrections - rba@vanmega.com
-------------------------------------------------------------------------


Important: The song above is NOT stored on the Chordie server. The original song is hosted at www.vanmega.com. Chordie works as a search engine and provides on-the-fly formatting. Chordie does not index songs against artists'/composers' will. To remove this song please click here.

Text color:
Chord color:
Chord grids: 
Font size:    
Page size: 

Amin C C5 F Fmaj G
variations - click chord images

Login - add to songbook

Transpose chords

Tuning

Rating click stars to rate

Layout
Accuracy

SHARE PAGE  




You need to log in to post comments