Hostile Apostle

311

---------------

e:------13------------------15-12-12h13h12-------13-----------------15-b17b-15-

B:---12----13------------13-------------------12----13-----------13------------

G:-12----------14-----13-------------------12----------14-----13---------------

D:----------------15--------------------------------------15-------------------

A:-----------------------------------------------------------------------------

E:-----------------------------------------------------------------------------

e:-------13-15----13--------15-12-12h13h12-------13-15----13--------15-b17b-15-

B:----12-------13--------13-------------------12-------13--------13------------

G:-12-----------------13-------------------12-----------------13---------------

D:-----------------------------------------------------------------------------

A:-----------------------------------------------------------------------------

E:-----------------------------------------------------------------------------


 F5E5
e:------------------------------------------------------------------
B:------------------------------------------------------------------
G:------------------------------------------------------------------
D:------------------------------------------------------------------
A:-3--3-3-3--3-3-3--3-3-3--3-3---3--2--2-2-2--2-2-2--2-2-2--2-2---2-
E:-1--1-1-1--1-1-1--1-1-1--1-1-5-1--0--0-0-0--0-0-0--0-0-0--0-0-4-0-

Riff 2:
=======
 F
e:----------------------------------------------------
B:----------------------------------------------------
G:----------------------------------------------------
D:---------3--3--------3--3----------3--3--------3--3-
A:----------------------------------------------------
E:-1-1-1-1-------1-1-1-------1-1-1-1-------1-1-1------

 E
e:----------------------------------------------------
B:----------------------------------------------------
G:----------------------------------------------------
D:---------2--2--------2--2----------2--2--------2--2-
A:----------------------------------------------------
E:-0-0-0-0-------0-0-0-------0-0-0-0-------0-0-0------

Chorus:
=======
 GFG#GFG#G
e:--------------------------------
B:--------------------------------
G:-4---2---5---4----4---2---5---4-
D:-5---3---6---5----5---3---6---5-
A:-5---3---6---5----5---3---6---5-
E:-3---1---4---3----3---1---4---3-

 G5F5G#5G5F5G#5G5
e:------------------------------------------------------------------
B:------------------------------------------------------------------
G:------------------------------------------------------------------
D:------------------------------------------------------------------
A:-5-5-5-3-3-3-3-3-6-6-6-5-5-5-5-5--5-5-5-3-3-3-3-3-6-6-6-5-5-5-5-5-
E:-3-3-3-1-1-1-1-1-4-4-4-3-3-3-3-3--3-3-3-1-1-1-1-1-4-4-4-3-3-3-3-3-

| P.M. |
Riff 3A:
========
N.C.
e:-----------------------------------------------
B:-----------------------------------------------
G:-----------------------------------------------
D:-----------------------------------------------
A:-----2-5-4--<4>-<4>-<4>-<4>-<4>--4-0---0-------
E:-0-3---------------------------------3---3-2-3-

Riff 3B:
========
N.C.
e:------------------------------------------
B:------------------------------------------
G:------------------------------------------
D:------------------------------------------
A:-----2-5-4--<4>-<4>-<4>-------------------
E:-0-3---------------------5--5-3-2-3-2-0-2-

***********
*** - Only play the first time through
Song Structure/Lyrics:
=====================
---> Play Intro (x1)
---> Play Riff 1 over
Nick:
I can't free myself of the suspicion
For your motives on your mission
Some people live for the rules
I live for exceptions
Can't take part in the deception
But I know just how it feels
To wanna blow the world away
Just to get to what is real
It won't work 'cuz
Everybody grinds to a halt now and then
Everybody's game gets salt then again
No matter what the papers say they're normal as they come
Bodyguards, ball of wax, they hide behind the gun
They get a panic pulse when they are so far from home
To me that is the reason to continue to roam
Exhiliration mix with the people skunk blazing
Checking out the shows that are sadly unamazing
---> Play Riff 2 over:
Nick:
Hostile Apostle who you following
Negative energy that you're swallowing
Some coked out malcontent
Who's soul is up for rent
Victim of lost soul Hostile apostle
SA:
Unlimited time and space and nearest universal
Light is what we're reaching for it's not rehearsal
Follow this around follow this hustle
Makin use of everything movin' all your muscle
---> Play Chorus over:
Nick:
Angry Human leads impressionable boy
To skulls and piercings and will to destroy
All of your heroes speak nothing to me
One emotion one tempo and no real feeling
---> Play Riff 2 over:
SA:
In this field we are the presence of the thoughts you're missin'
Keepin positive's intact from all the people dissin'
Open your eyes look at who you're kissin'
If you can't hear it people just listen
Nick & SA:
Hostile Apostle who you following
Negative energy that you're swallowing
Some coked out malcontent
Who's soul is up for rent
Victim of lost soul Hostile Apostle
---> Play Chorus over:
Nick:
Angry human leads impressionable boy
To skulls and peircings and will to destroy
All of your heroes speak nothing to me
You don't have to be a prick just to be heavy
---> Play Riff 3A over:
SA:
Changin' all the time changin all the same
Change in this life and this eternal frame
Warm in the sun refresh in the breeze
Glow in the stars blossom in the trees
---> Play Riff 3B over:
SA:
Livin' through life in infinite extent
Spread undivided operate unspent
No high no low no great and no small
Build and bound connect and equal all
---> Play Outro (x1)
Last Updated:  December 28, 2001
------------------------------------------------------------------------

NOTE: All tab files that appear on this site are the author's own work and represents their interpretation of the song. You may only use this file for private study, scholarship, or research. All songs in this archive are copyrighted so please respect these copyrights.
Archive Home   |   Guitar/Bass Archive   |   From Chaos (Guitar)


E E5 F F5 G G# G#5 G5
variations - click chord images
Transpose chords:
Tuning:
Cool service:
View: Size:
A  A  A
Rating:
Layout:
  • Currently 1/5 Stars.
  • 1
  • 2
  • 3
  • 4
  • 5
 
Accuracy:
  • Currently 2/5 Stars.
  • 1
  • 2
  • 3
  • 4
  • 5
 
click stars to rate
Chordie recommends:
Get acoustic guitar lessons and electric guitar lessons at JamPlay.com
Songbook:
Login to add this song to your songbook
Support the artist
Preview/buy this song
MSN Music
Why this non-profit ad?

 
login to add comments/video/corrections