Chordie logo


Drown    40 Below Summer



Dropped -D 1 1/2 stepes ( B - F# - B - E - G# -C# )
Transcribed by: J.T. Unverzagt ( SpazMunkey2000@bestnetpc.com) (Point08@hotmail.com)
This song is basically on the last for strings. Fun to play.
*Bass Riff*

Dist. Part A
-------------------------------------------------------------|
|------------------------------------------------------------|
|---------------------------14-14-14-15---14/12---14-15-14-12|
|----3-------1-1-1-0-----------------------------------------|
|----3-------1-1-1-0-----------------------------------------|
|----3-------1-1-1-0-----------------------------------------|

---------------------|
---------------------|
---------------------|
3--------1-1-1-0-----|
3--------1-1-1-0-----|
3--------1-1-1-0-----|


Part B ( verse)
*bass*

Part A

Part B

Guitar 1
P.M._______________________|
|-------------------------------------------------------|
|-------------------------------------------------------|
|-------------------------------------------------------|
|0-------0-0-0---------0-0------------------------------|
|0-------0-0-0---------0-0------------------------------|
|0-------0-0-0---------0-0------------------------------|


Guitar 2
I don't know this part exactly but what you could do is play around
 with the single noted part and it'll sound almost like it.

Part A

Part C
Bass with drum stick click, water effect  occasional open power chord (clean) played.
 Then the distortion comes and  you strike the the open power chord again

Part A ( 2x's )

Lyrics

Chase this tease into the open wave
And take this leash into your inner slave
Follow me into the open end
Now gather these pieces of broken man

I will set in motion - to open me up again
I will make the ocean - swallow me up and then
DROWN

Close this cell - imprison your only friend
And I can't kill - but I'm not so innocent
Rid this place of me and everyone
And change this face to burn in the sun

I will set in motion - to open me up again
I will make the ocean - swallow me up and then
DROWN

Stop this life - I can not stop this life
I can not stop this life - I can not die

I will set in motion - to open me up again
I will make the ocean - swallow me up and then


Important: The song above is NOT stored on the Chordie server. The original song is hosted at www.xguitar.com. Chordie works as a search engine and provides on-the-fly formatting. Chordie does not index songs against artists/composers will. To remove this song please click here.

This song is displayed as text-only. Transposing and tuning is only available for chordpro-songs.

Login - add to songbook

Rating click stars to rate

Layout
Accuracy

SHARE PAGE  




You need to log in to post comments