Chordie logo


Rejection    40 Below Summer



Author/Artist: 40 Below Summer
Title: Rejection(8)
Album: Invitation To The Dance
Transcribed by: Billy Donovan
Email: mrdonovan17@hotmail.com

B-F#-B-E-G#-C#

x-palm mute

-------------------|----------------------------------------------------------|
-------------------|-3--------------------------------------------------------|
-----3---------3---|---3------------------------------------------------------|
-------3---------3-|----------------------------------------------------------|
---1---------2-----|----------------------------------------------------------|
-1-------1-2-------|----------------------------------------------------------|
 Riff 1

---|--------------------------------------------------------------------------|
---|--------------------------------------------------------------------------|
-9-|--------------------------------------------------------------------------|
-9-|--------------------------------------------------------------------------|
-7-|--------------------------------------------------------------------------|
---|-0-1----------------------------------------------------------------------|
 Riff 2

-----------------|------------------------------------------------------------|
-----------------|------------------------------------------------------------|
-----------------|------------------------------------------------------------|
-----------------|------------------------------------------------------------|
-----------------|------------------------------------------------------------|
-x3-x2-x3-x2--3--|-x2-x2-x1---------------------------------------------------|
 Riff 3

------------------------------------------------------------------------------|
------------------------------------------------------------------------------|
------------------------------------------------------------------------------|
------------------------------------------------------------------------------|
------------------------------------------------------------------------------|
-x0-x0-x0-x3-x0--x0-x0-x0-x0-x1-----------------------------------------------|
 Riff 4

------------------------------------------------------------------------------|
------------------------------------------------------------------------------|
------------------------------------------------------------------------------|
------------------------------------------------------------------------------|
------------------------------------------------------------------------------|
-x3-x2-x3-x2-x3--x3-x2-x3-x2-x3-----------------------------------------------|


Important: The song above is NOT stored on the Chordie server. The original song is hosted at www.xguitar.com. Chordie works as a search engine and provides on-the-fly formatting. Chordie does not index songs against artists/composers will. To remove this song please click here.

This song is displayed as text-only. Transposing and tuning is only available for chordpro-songs.

Login - add to songbook

Rating click stars to rate

Layout
Accuracy

SHARE PAGE  




You need to log in to post comments