Chordie logo

Taxi Cab Confession    40 Below Summer



Tuning:Drop B
(B F# B E G# C#)

Intro/Verse(clean)
---9---7---------------------------------|
-7---8---8h9-999999----------------------|
-----------------------------------------|
-----------------------------------------|
-----------------------------------------|
-----------------------------------------|
Pre-Chorus
-----------------------------------------|
-----------------------------------------|
-----------------------4444444444444444--|
-4303-4034-4303-4034---2222222222222222--|
-4303-4034-4303-4034---------------------|
-4303-4034-4303-4034-00------------------|
                     ..
Chorus
--------------------------------------------------------------------|
--------------------------------------------------------------------|
--------------------------------------------------------------------|
-4444---4444-6666-2222---4444---4444-6666-88888888-1010101010101010-|
-4444---4444-6666-2222---4444---4444-6666-88888888-1010101010101010-|
-4444---4444-6666-2222---4444---4444-6666-88888888-1010101010101010-|
Post-Chorus
------------   |-----------------------------|
------------   |-----------------------------|
------------   |-----------------------------|
-4303-4034--   |-34--------------------------|
-4303-4034--X3 |-34--------------------------|
-4303-4034--   |-34-000000-------------------|
                    ......
Interlude 1
----------------------------------------|
----------------------------------------|
----4-4/5\2----4-4-4/5\4----------------|
----2-2/3\2----2-2-2/3\2----------------|
----------------------------------------|
-000--------000-------------------------|
 ...        ...
Interlude 2(only play this one once)
-----------------------------------------|
-----------------------------------------|
----4-4-4-4-4-4/5\4----------------------|
----2-2-2-2-2-2/3\2----------------------|
-----------------------------------------|
-000-------------------------------------|
 ...
Play Interlude 1
Outro Play post chorus but substitute last 2 palm mutes for:
-------------|
-------------|
-------------|
-3-----------|
-3-----------|
-3-----------|



Important: The song above is NOT stored on the Chordie server. The original song is hosted at www.xguitar.com. Chordie works as a search engine and provides on-the-fly formatting. Chordie does not index songs against artists/composers will. To remove this song please click here.

This song is displayed as text-only. Transposing and tuning is only available for chordpro-songs.

Login - add to songbook

Rating click stars to rate

Layout
Accuracy

SHARE PAGE  



You need to log in to post comments