Guitar Tabs, Chords and Lyrics


At Least I'm Known for Something    New Found Glory



SONG: new found glory - at least i'm known for something
TABBED BY: pat (pat@blimpage.com)

at the moment, this is the only accurate tab on the net for this song.
and after this, i don't think anyone will need to make another one.


LEGEND
 x - palm mute
 / - slide
 p - pull off
 ~ - let ring


INTRO
 |----------------------------------------------------------|
 |----------------------------------------------------------|
 |----------------------6/4/2------------------------6/8/9--|
 |-2222-2-2--2-2222-2---x/x/x---2222-2-2--2-2222-2---x/x/x--|
 |-2222-2-2--2-2222-2---4/2p0---2222-2-2--2-2222-2---4/6/7--|
 |-0000-0-0--0-0000-0-----------0000-0-0--0-0000-0----------| x2
   xxxx        xxxx             xxxx        xxxx

 |-----------------------------------------|
 |-----------------------------------------|
 |----------------------6/4/2--------------|
 |-2222-2-2--2-2222-2---x/x/x---4~-44-4-7~-|
 |-2222-2-2--2-2222-2---4/2p0---4~-44-4-7~-|
 |-0000-0-0--0-0000-0-----------2~-22-2-5~-|
   xxxx        xxxx                x

 INTRO NOTES:
 the timing isn't really shown very well, but it's easy to pick up.
 the sliding bits can be tricky, but they're easy enough as well.
 new found glory probably play this with two guitars, but meh.


VERSE
 |--------|          |----|
 |--------|          |----|
 |--------|          |----|
 |-2222-2-|          |-2~-|
 |-2222-2-|          |-2~-|
 |-0000-0-| x8, then |-0~-|
   xxxx

 VERSE NOTES:
 after 4 bars, a second guitar starts playing something over the top
 of this, which i can't figure out because of the weird effect on it.


PRECHORUS
 |----------------------------|
 |----------------------------|
 |----------------------------|
 |-444-666-777-999-444-777-9~-|
 |-444-666-777-999-444-777-9~-|
 |-222-444-555-777-222-555-7~-|
   xx  xx  xx  xx  xx  xx


CHORUS
 |----------------------------------------------------------|
 |----------------------------------------------------------|
 |----------------------6/4/2------------------------6/8/9--|
 |-2222-2-2--2-2222-2---x/x/x---2222-2-2--2-2222-2---x/x/x--|
 |-2222-2-2--2-2222-2---4/2p0---2222-2-2--2-2222-2---4/6/7--|
 |-0000-0-0--0-0000-0-----------0000-0-0--0-0000-0----------|
   xxxx        xxxx             xxxx        xxxx

 |-----------------------------------------|
 |-----------------------------------------|
 |----------------------6/4/2--------------|
 |-2222-2-2--2-2222-2---x/x/x---4~-44-4-7~-|
 |-2222-2-2--2-2222-2---4/2p0---4~-44-4-7~-|
 |-0000-0-0--0-0000-0-----------2~-22-2-5~-|
   xxxx        xxxx                x

 |---------------------| this part is played over the second half
 |---------------------| of the second and last choruses, with another
 |-99999999------------| weird effect on the guitar.
 |-99999999-7777-66-44-|
 |-77777777-7777-66-44-|
 |----------5555-44-22-| x3
   xxxxxxxx xxxx xx xx

 CHORUS NOTES:
 basically the same as the intro. whole thing is played twice.
 during the second half of the last chorus, the main chorus riff
 becomes pretty quiet, but i'm reasonably sure it's still there.


BRIDGE
 |-------------------|          |----------|
 |-------------------|          |----------|
 |-------------------|          |----------|
 |-22-22-22-22-24-47-|          |-22-22-22-|
 |-22-22-22-22-24-47-|          |-22-22-22-|
 |-00-00-00-00-02-25-| x3, then |-00-00-00-|
   x  x  x  x  xx xx              x  x  x

 |-------------------|          |-----------|
 |-------------------|          |-----------|
 |-------------------|          |-----------|
 |-22-22-22-22-24-47-|          |-22-22-22~-|
 |-22-22-22-22-24-47-|          |-22-22-22~-|
 |-00-00-00-00-02-25-| x7, then |-00-00-00~-|
   x  x  x  x  xx xx              x  x  x

 |----------------|
 |----------------|
 |----------------|
 |-444-666-777-9~-|
 |-444-666-777-9~-|
 |-222-444-555-7~-| played clean (no distortion)


END OF LAST CHORUS
 |-----------------|
 |-----------------|
 |-----------------|
 |-7-9-7-6-7-6-4-6-|
 |-7-9-7-6-7-6-4-6-|
 |-5-7-5-4-5-4-2-4-|
   x x x x x x x x

 |------------------------------------------|
 |------------------------------------------|
 |------------------------------------------|
 |-22-2-2-22---22-2-2-22---22-2-2-22---4~-7-|
 |-22-2-2-22---22-2-2-22---22-2-2-22---4~-7-|
 |-00-0-0-00---00-0-0-00---00-0-0-00---2~-5-|


SONG STRUCTURE
 intro
 verse
 prechorus
 chorus
 verse
 prechorus
 chorus
 bridge
 chorus
 end of last chorus


i know there are a lot of annoying notes in this tab, but i think having
notes is better than keeping you guessing.

have fun playing this song.

pat.
site: http://www.blimpage.com/


Important: The song above is NOT stored on the Chordie server. The original song is hosted at www.xguitar.com. Chordie works as a search engine and provides on-the-fly formatting. Chordie does not index songs against artists/composers will. To remove this song please click here.

This song is displayed as text-only. Transposing and tuning is only available for chordpro-songs.

Login - add to songbook

Rating click stars to rate

Layout
Accuracy

SHARE PAGE  




You need to log in to post comments