Guitar Tabs, Chords and Lyrics


Failure's Not Flattering    New Found Glory



Tabbed BY Matt Shepard

Intro/Chorus : x4
| ---------------------------------------------- |
| ---------------------------------------------- |
| --777777/14----------444444444---------------- |
| --777777/14-55555555-444444444-777777-44/5---- |
| --555555/12-55555555-222222222-777777-44/5---- |
| ------------33333333-----------555555-22/3---- |

Guitar 1/Synth(After 2nd Time Through Intro): x2
| --------------------------------------- |
| --------------------------------------- |
| --9-6---7-6---------------------------- |
| ------7-----7-9-4-5-7-4--5-7-4--5-7---- |
| --------------------------------------- |
| --------------------------------------- |

Verse 1 : Palm Muted x2
| ----------------------------------------- |
| ----------------------------------------- |
| --77777777----------44442222------------- |
| --77777777-55555555-44442222-55555555---- |
| --55555555-55555555-22220000-55555555---- |
| -----------33333333----------33333333---- |

Verse 2 : x2
| ----------------------------------------- |
| ----------------------------------------- |
| --77777777----------44442222------------- |
| --77777777-55555555-44442222-55555555---- |
| --55555555-55555555-22220000-55555555---- |
| -----------33333333----------33333333---- |
Pm  ......   ......            ......

Pre-Chorus:
| ------------------------------------------------ |
| ------------------------------------------------ |
| --11111111-77777777-11/12-11-9-11-9-77777777---- |
| --11111111-77777777-11/12-11-9-11-9-77777777---- |
| --99999999-55555555-9-/10-9--7-9--7-55555555---- |
| ------------------------------------------------ |

THEN:
Chorus/Intro
Verse 1
Verse 2
Pre-Chorus
Chorus

Post Chorus : x2
| -------------------------------------------------------- |
| -------------------------------------------------------- |
| --777-999-777-111-99-7-9--777-999-777-141414-11-9-11---- |
| --777-999-777-111-99-7-9--777-999-777-141414-11-9-11---- |
| --555-777-555-999-77-5-7--555-777-555-121212-99-7-9----- |
| -------------------------------------------------------- |

x2
| --------------------------------------- |
| --------------------------------------- |
| --7777777------------------------------ |
| --7777777-55555555-2222222-55555555---- |
| --5555555-55555555-2222222-55555555---- |
| ----------33333333-0000000-33333333---- |

Pre-Chorus

Bridge :
| ----------------------------------------------- |
| ----------------------------------------------- |
| --77777777/14-12-11-9--7-444444-222222--------- |
| --xxxxxxxx/xx-xx-x--x--x-444444-222222-44/5---- | x2
| --55555555/12-10-9--7--5-222222-000000-44/5---- |
| ---------------------------------------22/3---- |

Chorus


Important: The song above is NOT stored on the Chordie server. The original song is hosted at www.xguitar.com. Chordie works as a search engine and provides on-the-fly formatting. Chordie does not index songs against artists'/composers' will. To remove this song please click here.

This song is displayed as text-only. Transposing and tuning is only available for chordpro-songs.

Login - add to songbook

Rating click stars to rate

Layout
Accuracy

SHARE PAGE  




You need to log in to post comments