I Don't Wanna Know

New Found Glory

e[---------------------------------]


b[-----0-------0-------0-------0---]


g[-2-0---0-2-0---0-2-0---0-2-0---0-]


d[-0-0-----0-0-----x-x-----x-x-----]


a[-x-x-----x-x-----3-3-----3-3-----]


E[-3-3-----0-0---------------------]


e[-3-3-3-3-0-0-0-0-0-0-0-0-0-0-0-0-]


b[-3-3-3-3-1-1-1-1-3-3-3-3-1-1-1-1-]


g[-0-0-0-0-0-0-0-0-0-0-0-0-0-0-0-0-]


d[-0-0-0-0-2-2-2-2-2-2-2-2-2-2-2-2-]


a[-x-x-x-x-3-3-3-3-2-2-2-2-3-3-3-3-]


E[-3-3-3-3-------------------------]


e[---0-00000--2-2222-0~~-]


b[---3-33333--3-3333-1~~-]


g[---0-00000--2-2222-0~~-]


d[---2-22222--0-0000-2~~-]


a[---2-22222--x-xxxx-3~~-]


E[---x-xxxxx--x-xxxx-x---]


e[-0-0-0-00000-0-2-2-2-22222-2-]


b[-1-1-1-11111-1-3-3-3-33333-3-]


g[-0-0-0-00000-0-2-2-2-22222-2-]


d[-2-2-2-22222-2-0-0-0-00000-0-]


a[-3-3-3-33333-3---------------]


E[-----------------------------]


e[-----------------------------]


b[-----------------------------]


g[-5-5-5-55555-5-7-7-7-77777-7-]


d[-5-5-5-55555-5-7-7-7-77777-7-]


a[-3-3-3-33333-3-5-5-5-55555-5-]


E[-----------------------------]


 -3~~-
e 
 -3~~-
b 
 -0~~-
g 
 -0~~-
d 
 -2~~-
a 
 -3~~-
E 
OR:
 -----
e 
 -----
b 
 -5~~-
g 
 -5~~-
d 
 -3~~-
a 
 -----
E 

next, do the intro and the chorus again

then you will finally end on:
 -3~~-
e 
 -3~~-
b 
 -0~~-
g 
 -0~~-
d 
 -2~~-
a 
 -3~~-
E 
OR:
 -----
e 
 -----
b 
 -5~~-
g 
 -5~~-
d 
 -3~~-
a 
 -----
E 

ok.that should be it.pretty easy song,but really hard to hear in some places.i think
this should be a really good tab for this song!!!!. later!