Chordie logo

All About Her    New Found Glory



enjoy

Chorus/Intro
e|-----------------------------------------------------------------------------|
B|-----------------------------------------------------------------------------|
G|----------------------4-4---4--------6-6---6---------------------------------|
D|----2-2---2-----------4-4---4--------6-6---6-------------7-7---7----------2--|
A|----2-2---2-----------2-2---2--------4-4---4-------------7-7---7----------2--|
E|----0-0---0--2--4-------------2--4-------------2--4------5-5---5---4---2--0--|

Verse
e|------------------------------------------------------------------|
B|------------------------------------------------------------------|
G|------------------------------------------------------------------|
D|---2--2-2-~~~~~2--2--2*-------7p6--7p6--7p6-7-7p6-7p6--9----------|
A|---2--2-2-~~~~~2--2--2*----------7----7----------7---7------------|
E|---0--0-0-~~~~~0--0--0*-------------------------------------------|

Pre Chorus
e|-------------------------------------------------|
B|-------------------------------------------------|
G|-----------4--------6---4-4--6--4-4--2-2---------| 2X
D|---2--2-2--4--7--7--6---4-4--6--4-4--2-2--2-2-2--|
A|---2--2-2--2--7--7--4---2-2--4--2-2--0-0--2-2-2--|
E|---0--0-0-----5--5------------------------0-0-0 -|

Breakdown
e|------------------------------------------------------------------------|
B|----5-4-5------5-4-5-4-5-----5-4-5-4-5-----5-4-5-4-5--------------------|
G|------------------------------------------------------------------------|
D|------------------------------------------------------------------------|
A|------------------------------------------------------------------------|


Important: The song above is NOT stored on the Chordie server. The original song is hosted at www.xguitar.com. Chordie works as a search engine and provides on-the-fly formatting. Chordie does not index songs against artists/composers will. To remove this song please click here.

This song is displayed as text-only. Transposing and tuning is only available for chordpro-songs.

Login - add to songbook

Rating click stars to rate

Layout
Accuracy

SHARE PAGE  



You need to log in to post comments