Chordie logo

Ballad for the Lost Romantics    New Found Glory



TABBED BY SEB DELECROIX

INTRO/INTERLUDE

|--------------------------------|
|--------------------------------|
|-----------------10101010101010-|
|-10101010101010--10101010101010-| x7
|-10101010101010---8-8-8-8-8-8-8-|
|--8-8-8-8-8-8-8-----------------|


VERSE

|---------------------|
|---------------------|
|---------------------|
|-55555555--333333333-| x2
|-55555555--333333333-|
|-33333333--111111111-|


|--------------------------------|
|--------------------------------|
|-----------------10101010101010-|
|-10101010101010--10101010101010-| x4
|-10101010101010---8-8-8-8-8-8-8-|
|--8-8-8-8-8-8-8-----------------|

|--------------------------------|
|--------------------------------|
|-555555555555555555555555555555-|
|-555555555555555555555555555555-|
|-333333333333333333333333333333-|
|--------------------------------|

VERSE	

CHORUS

|----------------------------------------------------------------------------------|
|----------------------------------------------------------------------------------|
|-5--5--------------5--5-----------------7--5--5-------------5--5----------------7-|
|-5--5-2--2--3-33---5--5-2--2--3-33-xxx--7--5--5-2--2--3-33--5--5-2--2--3-33-xxx-7-|
|-3--3-2--2--3-33---3--3-2--2--3-33-xxx--5--3--3-2--2--3-33--3--3-2--2--3-33-xxx-5-|
|------0--0--1-11--------0--0--1-11-xxx----------0--0--1-11-------0--0--1-11-xxx---|


|--------|
|--------|
|--------|
|----2-3-| x7
|-3------|
|--------|

|---------------------------|
|---------------------------|
|-555555--------------------|
|-555555-222222-33333333333-| x2
|-333333-222222-33333333333-|
|--------000000-11111111111-|

INTERLUDE 2
VERSE
CHORUS
AFTER CHORUS
INTERLUDE 2
VERSE
CHORUS

End:

|---------------------------|
|---------------------------|
|-555555--------------------|
|-555555-222222-33333333333-|
|-333333-222222-33333333333-|


Important: The song above is NOT stored on the Chordie server. The original song is hosted at www.xguitar.com. Chordie works as a search engine and provides on-the-fly formatting. Chordie does not index songs against artists/composers will. To remove this song please click here.

This song is displayed as text-only. Transposing and tuning is only available for chordpro-songs.

Login - add to songbook

Rating click stars to rate

Layout
Accuracy

SHARE PAGE  

You need to log in to post comments