Hit or Miss

New Found Glory

------------------------------------------------------------------

------------------------------------------------------------------
-9-9-x-9------------------------------------------------------- Play this three times with a very fast
-9-9-x-9--9-9-x-9-11-11-x-11-7-7-x-7--------------- and continuous motion.
-7-7-x-7--9-9-x-9-11-11-x-11-7-7-x-7--------------
-------------7-7-x-7--9---9-x--9--5-5-x-5--------------
 EBCA
Bridge:                                       
----------------------------------------------------------------
----------------------------------------------------------------
-9-9-9-9------------------------------------------------------         After the third time you play the
-9-9-9-9-9-9-9-9-11-11-11-11-7-7-7-7--------------      intro, play this. It is all palm muted.
-7-7-7-7-9-9-9-9-11-11-11-11-7-7-7-7--------------       Play the intro three more times after
------------7-7-7-7--9---9--9---9--5-5-5-5--------------                             this.

^ ^ ^ ^ ^ ^ ^ ^ ^ ^ ^ ^ ^ ^ ^ ^
 EBCA
--------------------------
--------------------------
---9--------------------
---9-----9------7------   Play this after you play the intro three times more. Let each chord
---7-----9------7-------                                           ring.
----------7------5------

Melody:
--------------------------------------------------------------------------------------------
--------------------------------------------------------------------------------------------
----------------------4-4-4----4-4-4----6-6-6---6-6-6---4-4--4---4--4-4--------
-2-2-2---2-2-2----4-4-4----4-4-4----6-6-6---6-6-6---4-4--4---4--4-4-------
-2-2-2---2-2-2----2-2-2----2-2-2----4-4-4---4-4-4---2-2--2---2--2-2-------
-0-0-0---0-0-0------------------------------------------------------------------------

^ ^ ^ ^ ^ ^ ^ ^ ^ ^ ^ ^ ^ ^ ^ ^ ( First two notes are
E B C# B palm muted. )
-------------------------------------------------------------------------------------------
-------------------------------------------------------------------------------------------
----------------------4-4-4---4-4-4---6-6-6---6-6-6---9-9-9-9-9-9-9-9------
-2-2-2---2-2-2----4-4-4---4-4-4---6-6-6---6-6-6---9-9-9-9-9-9-9-9-------       After playing this, just
-2-2-2---2-2-2----2-2-2---2-2-2---4-4-4---4-4-4---7-7-7-7-7-7-7-7-----            strum these chords.
-0-0-0---0-0-0------------------------------------------------------------------------       ( It would take too long

^ ^ ^ ^ ^ ^ ^ ^ ^ ^ ^ ^ to type it, so figure it
E B C# E out yourself. )

Chorus:
--------------------------------------------------------------------
---------------------------------------------------------------------
--9-9-9------------------------------------------------------------
--9-9-9--9-9-9-11-11-11-11-11-11--11--11------------
--7-7-7--9-9-9-11-11-11-11-11-11--11--11-------------
-----------7-7-7---9--9--9---9---9---9---9----9--------------

^ ^ ^ ^ ^ ^ ^ ^ ^ ^ ^ ^
 EBB
--------------------------------------------
--------------------------------------------
-9-9-9-------------------------------------
-9-9-9-9-9-9--7-7-7-7-7-7-7-7-----
-7-7-7-9-9-9--7-7-7-7-7-7-7-7-----
----------7-7-7-5-5-5-5-5-5-5-5-------

^ ^ ^ ^ ^ ^ ^ ^ ^ ^ ^ ^
 EBA
That is pretty much the whole song. Please tell me if you see any problems with this tab so I can improve it.









A B C E
variations - click chord images
Transpose chords:
Tuning:
Cool service:
View: Size:
A  A  A
Rating:
Layout:
  • Currently 0/5 Stars.
  • 1
  • 2
  • 3
  • 4
  • 5
 
Accuracy:
  • Currently 0/5 Stars.
  • 1
  • 2
  • 3
  • 4
  • 5
 
click stars to rate
Chordie recommends:
Learn how to play guitar at JamPlay.com
Songbook:
Login to add this song to your songbook
Support the artist
Preview/buy this song
MSN Music
Why this non-profit ad?

 
login to add comments/video/corrections