Chordie logo


Understatement    New Found Glory



Title: Understatement
Artist: A New Found Glory
Album: Sticks and Stones
Date: August 10, 2004
Tabbed By: Kyle (wkpxdj885@aol.com)
Tuning: Standard


It’s really easy and shouldn’t take you too long to learn it.

Intro: x4

E--------------------------------------------
B--------------------------------------------
G--------------------------------------------
D--2---2---2------2---2---2----2-------------
A--2---2---2------2---2---2----2-------------
E--0---0---0------0---0---0----0-------------
                         PM…………..


Verse x2: (play the palm muted notes about 16x per measure. I only tabbed out the first 5)

E--------------------------------------------
B--------------------------------------------
G--------------------------------------------
D----2---2---2--2---2---2--------------------
A----2---2---2--2---2---2------------------
E----0---0---0--0---0---0-----------------
	 Pm……………..

This part is part of the verse so once again, play it 2x)

E-----------------------------------------------------
B------------------------------------------------------
G-------------------------------------------------------
D--4---4---4---4---4---4----7--7---7--7---7---7----------
A--4---4---4---4---4---4----7--7---7--7---7---7----------
E--2---2---2---2---2---2----5--5---5--5---5---5-----------







Pre-Chorus
X4
“I wire these nerves together….”

E--------------------------------------------------------
B--------------------------------------------------------
G---6---6---6---6-----4---4---4---4----2---2---2---2-----
D---6---6---6---6-----4---4---4---4----2---2---2---2-----
A---4---4---4---4-----2---2---2---2----0---0---0---0-----
E-------------------------------------------------------



Chorus x4

E-----------------------------------------------------------
B-------------------------------------------------------------
G-------------------------------------------------------------
D--2----2---2----4---4---4-----7--7--7----9--9--9----------
A--2----2---2----4---4---4-----7--7--7----9--9--9-----------
E--0----0---0----2---2---2-----5--5--5----7--7--7------------


Play this on the 4th time

       “…that you’ll be callin’, callin’, callin’ me again.”
E--------------------------------------------
B--------------------------------------------
G--------------------------------------------
D--11---7--7----9--9-------------------------
A--11---7--7----9--9-------------------------
E--9----5--5----7--7------------------------

(Go back and play he verse 2 more times)












Interlude

“I can’t help how I feel….”

E-----------------------------------------------------------------------------------
B--------------------------------------------------------------------------------------------------
G-------------------------------------------------------------------------------------------------
D--2---2---2--2--2--2-----4--4--4--4--4--4-----7--7--7--7--7--7â€"7---7---7--7--7--7--7---9â€"9---
A--2---2---2--2--2--2-----4--4--4--4--4--4-----7--7--7--7--7--7â€"7---7---7--7--7--7--7---9â€"9---
E--0---0---0--0--0--0-----2--2--2--2--2--2-----5--5--5--5--5--5â€"5---5---5--5--5--5--5---7--7-----
     Pm………….          Pm…………           pm…………….               Pm…………



Play this next part clean
“But your getting worse, I swear it….”

E--------------------------------------------------------------
B--------------------------------------------------------------
G---------------------------------------------------------------
D--2--2--2---4--4--4---7--7---7---9---9---9--------------
A--2--2--2---4--4--4---7--7---7---9---9---9--------------
E--0--0--0---2--2--2---5--5---5---7---7---7---------------


That’s it. Here is the order of the song:

Intro x4
Verse x2
Pre-Chorus x4
Chorus x4
Verse x2
Pre-Chorus x5
Chorus x4
Interlude x2
Clean Interlude x4


Important: The song above is NOT stored on the Chordie server. The original song is hosted at www.xguitar.com. Chordie works as a search engine and provides on-the-fly formatting. Chordie does not index songs against artists/composers will. To remove this song please click here.

This song is displayed as text-only. Transposing and tuning is only available for chordpro-songs.

Login - add to songbook

Rating click stars to rate

Layout
Accuracy

SHARE PAGE  




You need to log in to post comments