Chordie logo


3 Libras   Perfect Circle



 ----------------------------------------------------------------------------------------------

	     SONG: 3 Libras
	     BAND: A Perfect Circle
	    ALBUM: Mer De Noms
   TRANSCRIBED BY: Jonathan Bissonnette 

 ----------------------------------------------------------------------------------------------

	TUNING: drop 1.5 steps (C#,F#,B,E,G#,C#)
     INTRO:

    |----------------------------------------| 
    |-3-----3---3-----3---3-----3---/7-----7-| 
    |---0---------0---------0----------0-----| 
    |----------------------------------------| 
    |-3---3-----3---3-----3---3-----/7---7---| 
    |----------------------------------------| 

    |------------------------------------------| 
    |-3-----3---3-----3---/10-------10/7-----7-| 
    |---0---------0------------0---------0-----| 
    |------------------------------------------| 
    |-3---3-----3---3-----/10----10---/7---7---| 
    |------------------------------------------| 

    |----------------------------------------| 
    |-3-----3---3-----3---3-----3---/7-----7-| 
    |---0---------0---------0----------0-----| 
    |----------------------------------------| 
    |-3---3-----3---3-----3---3-----/7---7---| 
    |----------------------------------------| 

    |------------------------------------------| 
    |-3-----3---3-----3---/10-------10/7-----7-| 
    |---0---------0------------0---------0-----| 
    |------------------------------------------| 
    |-3---3-----3---3-----/10----10---/7---7---| 
    |------------------------------------------| 
 
    |--------------------------------| 
    |-/8-----8--8-----8--8-----8---8-| 
    |----0--------0--------0---------| 
    |--------------------------------| 
    |-/8---8----8---8----8---8-----8-| 
    |--------------------------------| 

     VERSE: 

    |--------------------------------------| 
    |-3-----3---3-----3---/7-----7/8-----8-| 
    |---0---------0----------0-------0-----| 
    |--------------------------------------| 
    |-3---3-----3---3-----/7---7--/8---8---| 
    |--------------------------------------| 

     At the end of the forth time 

    |-------| 
    |-----7-| 
    |-------| 
    |---0---| 
    |-7-----| 
    |-------| 

     CHORUS: 

    |---------------------------------------| 
    |-3-----3---3-----3---3-----3---3-----3-| 
    |---0---------0---------0----------0----| 
    |---------------------------------------| 
    |-3---3-----3---3-----3---3-----3---3---| 
    |---------------------------------------| 

    |----------------------------------------| 
    |-/7-----7---7-----7---7-----7---7-----7-| 
    |----0---------0---------0---------0-----| 
    |----------------------------------------| 
    |-/7---7-----7---7-----7---7-----7---7---| 
    |----------------------------------------| 

     At the end of the chorus 

    |---| 
    |-8-| 
    |-0-| 
    |---| 
    |-8-| 
    |---| 

     BRIDGE:

    |-----------------------------------------| 
    |-----------------------------------------| 
    |-12-12-12-12-12-12-12-12/8-8-8-8---------| 
    |-12-12-12-12-12-12-12-12/8-8-8-8-6-6-6-6-| 
    |-10-10-10-10-10-10-10-10/6-6-6-6-6-6-6-6-| 
    |---------------------------------4-4-4-4-|

     BRIDGE PART 2:

    |----------------------------------------| 
    |-3-----3---3-----3---3-----3---/7-----7-| 
    |---0---------0---------0----------0-----| 
    |----------------------------------------| 
    |-3---3-----3---3-----3---3-----/7---7---| 
    |----------------------------------------| 

    |------------------------------------------| 
    |-3-----3---3-----3---/10-------10/7-----7-| 
    |---0---------0------------0---------0-----| 
    |------------------------------------------| 
    |-3---3-----3---3-----/10----10---/7---7---| 
    |------------------------------------------| 

    |----------------------------------------| 
    |-3-----3---3-----3---3-----3---/7-----7-| 
    |---0---------0---------0----------0-----| 
    |----------------------------------------| 
    |-3---3-----3---3-----3---3-----/7---7---| 
    |----------------------------------------| 

    |------------------------------------------| 
    |-3-----3---3-----3---/10-------10/7-----7-| 
    |---0---------0------------0---------0-----| 
    |------------------------------------------| 
    |-3---3-----3---3-----/10----10---/7---7---| 
    |------------------------------------------| 

    |--------------------------------| 
    |-/8-----8--8-----8--8-----8---8-| 
    |----0--------0--------0---------| 
    |--------------------------------| 
    |-/8---8----8---8----8---8-----8-| 
    |--------------------------------| 

     OUTRO:

    |------------------------------| 
    |------------------------------| 
    |-9-7-9-7-9-11-16-19-11-9-7-12-| 
    |-x-x-x-x-x--x--x--x--x-x-x--x-| 
    |-7-5-7-5-7--9-14-17--9-7-5-10-| 
    |------------------------------| 



Important: The song above is NOT stored on the Chordie server. The original song is hosted at www.xguitar.com. Chordie works as a search engine and provides on-the-fly formatting. Chordie does not index songs against artists/composers will. To remove this song please click here.

This song is displayed as text-only. Transposing and tuning is only available for chordpro-songs.

Login - add to songbook

Rating click stars to rate

Layout
Accuracy

SHARE PAGE  




You need to log in to post comments