3 Libras

Perfect Circle


----------------------------------------------------------------------------------------------
SONG: 3 Libras BAND: A Perfect Circle ALBUM: Mer De Noms TRANSCRIBED BY: Jonathan Bissonnette
----------------------------------------------------------------------------------------------
TUNING: drop 1.5 steps (C#,F#,B,E,G#,C#)
INTRO:
|----------------------------------------| |-3-----3---3-----3---3-----3---/7-----7-| |---0---------0---------0----------0-----| |----------------------------------------| |-3---3-----3---3-----3---3-----/7---7---| |----------------------------------------|
|------------------------------------------| |-3-----3---3-----3---/10-------10/7-----7-| |---0---------0------------0---------0-----| |------------------------------------------| |-3---3-----3---3-----/10----10---/7---7---| |------------------------------------------|
|----------------------------------------| |-3-----3---3-----3---3-----3---/7-----7-| |---0---------0---------0----------0-----| |----------------------------------------| |-3---3-----3---3-----3---3-----/7---7---| |----------------------------------------|
|------------------------------------------| |-3-----3---3-----3---/10-------10/7-----7-| |---0---------0------------0---------0-----| |------------------------------------------| |-3---3-----3---3-----/10----10---/7---7---| |------------------------------------------| |--------------------------------| |-/8-----8--8-----8--8-----8---8-| |----0--------0--------0---------| |--------------------------------| |-/8---8----8---8----8---8-----8-| |--------------------------------|
VERSE:
|--------------------------------------| |-3-----3---3-----3---/7-----7/8-----8-| |---0---------0----------0-------0-----| |--------------------------------------| |-3---3-----3---3-----/7---7--/8---8---| |--------------------------------------|
At the end of the forth time
|-------| |-----7-| |-------| |---0---| |-7-----| |-------|
CHORUS:
|---------------------------------------| |-3-----3---3-----3---3-----3---3-----3-| |---0---------0---------0----------0----| |---------------------------------------|
|-3---3-----3---3-----3---3-----3---3---| |---------------------------------------|
|----------------------------------------| |-/7-----7---7-----7---7-----7---7-----7-| |----0---------0---------0---------0-----| |----------------------------------------| |-/7---7-----7---7-----7---7-----7---7---| |----------------------------------------|
At the end of the chorus
|---| |-8-| |-0-| |---| |-8-| |---|
BRIDGE:
|-----------------------------------------| |-----------------------------------------| |-12-12-12-12-12-12-12-12/8-8-8-8---------| |-12-12-12-12-12-12-12-12/8-8-8-8-6-6-6-6-| |-10-10-10-10-10-10-10-10/6-6-6-6-6-6-6-6-| |---------------------------------4-4-4-4-|
BRIDGE PART 2:
|----------------------------------------| |-3-----3---3-----3---3-----3---/7-----7-| |---0---------0---------0----------0-----| |----------------------------------------| |-3---3-----3---3-----3---3-----/7---7---| |----------------------------------------|
|------------------------------------------| |-3-----3---3-----3---/10-------10/7-----7-| |---0---------0------------0---------0-----| |------------------------------------------| |-3---3-----3---3-----/10----10---/7---7---| |------------------------------------------|
|----------------------------------------| |-3-----3---3-----3---3-----3---/7-----7-| |---0---------0---------0----------0-----| |----------------------------------------| |-3---3-----3---3-----3---3-----/7---7---| |----------------------------------------|
|------------------------------------------| |-3-----3---3-----3---/10-------10/7-----7-| |---0---------0------------0---------0-----| |------------------------------------------| |-3---3-----3---3-----/10----10---/7---7---| |------------------------------------------|
|--------------------------------| |-/8-----8--8-----8--8-----8---8-| |----0--------0--------0---------| |--------------------------------| |-/8---8----8---8----8---8-----8-| |--------------------------------|
OUTRO:
|------------------------------| |------------------------------| |-9-7-9-7-9-11-16-19-11-9-7-12-| |-x-x-x-x-x--x--x--x--x-x-x--x-| |-7-5-7-5-7--9-14-17--9-7-5-10-| |------------------------------|













variations - click chord images
Transpose chords:
Tuning:
Cool service:
View: Size:
A  A  A
Rating:
Layout:
  • Currently 0/5 Stars.
  • 1
  • 2
  • 3
  • 4
  • 5
 
Accuracy:
  • Currently 3.1/5 Stars.
  • 1
  • 2
  • 3
  • 4
  • 5
 
click stars to rate
Chordie recommends:
Learn to play guitar with video-based, online guitar lessons at JamPlay.com
Songbook:
Login to add this song to your songbook
Support the artist
Preview/buy this song
MSN Music
Why this non-profit ad?

 
login to add comments/video/corrections