Guitar Tabs, Chords and Lyrics


Magdalena   Perfect Circle



A perfect circle - Magdalena	
Mer De Noms(sea of names)

tabbed by oBLiV - oBLiV@robertsmail.com

tune down 1/2 step in addition to \"drop D\" tuning 
(low to high:  Db Ab Db Gb Bb Eb)

use slight to medium amount of echo and/or reverb effect throughout

 rhythm guitar 
|---------------------------------|---------------------------------||
|---------------------------------|---------------------------------||
|---------------------------------|---------------------------------||
|---------------------------------|---------------------------------||
|-5-5-5-5-5-5-5-5-5-5-5-5-5-5-5-5-|-5-5-5-5-5-5-5-5-----------------||
|---------------------------------|-----------------3-3-3-3-3-3-3-3-||


 lead riff
|---------------------------------|---------------------------------|
|---------------------------------|---------------------------------|
|-----------------------------2---|--7------------------------------|
|-7----------7-(7)/9--9--7--------|----7-------------7/9---------7--|
|---11----------------------------|------11-11----------------------|
|---------------------------------|---------------------------------|


|--14--------10--------|----------------------------------|--14---------10----------
|----------------------|-8-10-8-10-121212-10-12-10--------|-------------------------
|----------------------|----------------------------------|-------------------------
|----------------------|----------------------------12----|-------------------------
|----------------------|----------------------------------|-------------------------
|----------------------|----------------------------------|-------------------------

 both guitars - (0:38)
|-----------------|-------------||
|-----------------|-------------||
|-----------------|-------------||
|-0---------------|------3------||
|-0---------------|------3------||
|-0---------------|------3------||

*make sure you listen to the recording to get the proper timing down - 
there are some places 
where you don\'t play the chords... just bass/drum/vocal.


|---------------------------|-------------------------------||
|-9/10-10\\9---9/12----------|-9/10-10\\9---9/12-12/15---15---||
|-------------------9---7---|-------------------------------||
|-6/7---7\\6---6/9-----------|-6/7---7\\6---6/9---9/12---12---||
|-------------------7---5---|-------------------------------||
|---------------------------|-------------------------------||


 play 2 times
|----------------------------15^^^^(1/2)-||
|-15^^^^^(1)--15^(1/2)-15----------------||
|-------------------------14-------------||
|----------------------------------------||
|----------------------------------------||
|----------------------------------------||

for the repeating ^ sign, gradually bend the note to the position 
marked (1 = 1 step, 1/2 =v 1/2 step, etc)

for this part, hold the bend from the last section, and release it 
slowly as this part begins.
v = lower bend, h = hammer on, p = pull off

|--(1/2)vv-(15)-14-------|-----------------------------------|-14----14h15p14-10-----
|------------------------|-8-10-8-10-121212-10-12-10---------|-----------------------
|------------------------|-----------------------------------|-----------------------
|------------------------|---------------------------12------|-----------------------
|------------------------|-----------------------------------|-----------------------
|------------------------|-----------------------------------|-----------------------|

|--------------------------------------||
|-8-10-8-10-121212-10-12-10--------14\\-||
|----------------------------------15\\-||
|---------------------------12---------||
|--------------------------------------||
|--------------------------------------||


now for the guitar solo thing.  honestly, it\'s a little too effects 
loaded for me to be able to
tell exactly what notes he\'s playing, but i can tell you the scale, so 
improvise your way through
it!  nothing says lovin\' like your own mark on a solo.

|----------------------------12-14-15-||
|-------------------12-13-15----------||
|-------------12-14-------------------||
|-------12-14-------------------------||
|-12-14-------------------------------||
|-------------------------------------||


through the solo, and through the remainder of the song, one of the following two parts is 
played.  at one point, the bass starts playing E (2nd fret, D string), but the guitar is
either silent or feeding back during this, so don\'t worry about it.


|-----------------|-----------------||
|-----------------|-----------------||
|-----------------|-----------------||
|-----------------|-----------------||
|-----------------|-----------------||
|-3-3-3-3-5-5-5-5-|-0-0-0-0-0-0-0-0-||


|----------------|----------------||
|----------------|----------------||
|----------------|----------------||
|-3------5-------|-0------0-------||
|-3------5-------|-0------0-------||
|-3------5-------|-0------0-------||

and there you have it.  enjoy!




Important: The song above is NOT stored on the Chordie server. The original song is hosted at www.xguitar.com. Chordie works as a search engine and provides on-the-fly formatting. Chordie does not index songs against artists'/composers' will. To remove this song please click here.

This song is displayed as text-only. Transposing and tuning is only available for chordpro-songs.

Login - add to songbook

Rating click stars to rate

Layout
Accuracy

SHARE PAGE  




You need to log in to post comments