Guitar Tabs, Chords and Lyrics


A Sip of Wine Chased With Cyanide    A Static Lullaby



Band: A Static Lullaby 
Song: A Sip of Wine Chased With Cyanide 
 

------------------------------------------------------------------------------ 
------------------------------------------------------------------------------ 
-9-9-9--12\\11--12\\11--7-7-7---9\\7-9\\7----------------------------------------- 
-9-9-9---x-x----x-x---7-7-7---x-x-x-x--7-7-7--9-10--10-10--5-5-5-5-5-5--(x4)-- 
-7-7-7--10\\9---10\\9---5-5-5---7\\5-7\\5--7-7-7--9-10--10-10--5-5-5-5-5-5-------- 
---------------------------------------7-7-7--9-10--10-10--5-5-5-5-5-5-------- 
x x x x 

------------------------------------------------------------------------------ 
------7^---------------------------------------------------------------------- 
-9~-------7^------------------------------------------------------------------ 
-x~------------7/2------------------------------------------------------------ 
-7~--------------------------------------------------------------------------- 
------------------------------------------------------------------------------ 


------------------------------------------------------------------------------ 
------------------------------------------------------------------------------ 
-9-9-9---9\\8/9---9-9---9/11\\9----9-9---9\\8/9---9---11/12---14\\11-------------- 
-x-x-x---x-x-x---x-x---x--x-x----x-x---x-x-x---x----x--x----x-x--------------- 
-7-7-7---7\\6/7---7-7---7/-9\\7----7-7---7\\6/7---7----9/10---12\\9--------------- 
------------------------------------------------------------------------------ 


------------------------------------------------------------------------------ 
------------------------------------------------------------------------------ 
-9-9-9---9\\8/9---9-9---9/11\\9----9-9---9\\8/9---9----11-11-11--9~---9\\4-------- 
-x-x-x---x-x-x---x-x---x--x-x----x-x---x-x-x---x-----x--x--x--x~---x\\x-------- 
-7-7-7---7\\6/7---7-7---7/-9\\7----7-7---7\\6/7---7-----9--9--9--7~---7\\2-------- 
------------------------------------------------------------------------------ 


------------------------------------------------------------------------------ 
------------------------------------------------------------------------------ 
-9-9-9-9-9-9-9-9-9-9-9-9-9-9-9-9---------------------------------------------- 
-x-x-x-x-x-x-x-x-x-x-x-x-x-x-x-x---------------------------------------------- 
-7-7-7-7-7-7-7-7-7-7-7-7-7-7-7-7---------------------------------------------- 
------------------------------------------------------------------------------ 
x x x x x x x x x x x x 

------------------------------------------------------------------------------ 
------5b6r5b6-----5b6r5b6------5b6r5b6-----5b6r5b6------5b6r5b6----5b6r5b6---- 
------------------------------------------------------------------------------ 
-0-0-0--------0-0---------2-2-2--------2-2---------3-3-3--------3-3----------- 
-0-0-0--------0-0---------2-2-2--------2-2---------3-3-3--------3-3----------- 
-0-0-0--------0-0---------2-2-2--------2-2---------3-3-3--------3-3----------- 


------------------------------------------------------------------------------ 
------------------------------------------------------------------------------ 
------------------------------------------------------------------------------ 
-0-2-3-0-3-5-0-8-7-0-5-8-0-3-5------------------------------------------------ 
-0-2-3-0-3-5-0-8-7-0-5-8-0-3-5------------------------------------------------ 
-0-2-3-0-3-5-0-8-7-0-5-8-0-3-5------------------------------------------------ 

------------------------------------------------------------------------------ 
------5b6r5b6-----5b6r5b6------5b6r5b6-----5b6r5b6------5b6r5b6----5b6r5b6---- 
------------------------------------------------------------------------------ 
-0-0-0--------0-0---------2-2-2--------2-2---------3-3-3--------3-3----------- 
-0-0-0--------0-0---------2-2-2--------2-2---------3-3-3--------3-3----------- 
-0-0-0--------0-0---------2-2-2--------2-2---------3-3-3--------3-3----------- 


------------------------------------------------------------------------------ 
------------------------------------------------------------------------------ 
------------------------------------------------------------------------------ 
-0-2-3-0-3-5-0-8-7-0-5-8-0-3-5------------------------------------------------ 
-0-2-3-0-3-5-0-8-7-0-5-8-0-3-5------------------------------------------------ 
-0-2-3-0-3-5-0-8-7-0-5-8-0-3-5------------------------------------------------ 

------------------------------------------------------------------------------ 
------------------------------------------------------------------------------ 
-12--12--12--11--11--11--12--12--12--14--14--14--12--12--11--11--------------- 
--x---x---x---x---x---x---x---x---x---x---x---x---x---x---x---x--------------- 
-10--10--10---9---9---9--10--10--10--12--12--12--10--10---9---9--------------- 
------------------------------------------------------------------------------ 


------------------------------------------------------------------------------ 
------------------------------------------------------------------------------ 
-12--12--12--11--11--11--12--12--12--16--16--16--14--14--12--12--------------- 
--x---x---x---x---x---x---x---x---x---x---x---x---x---x---x---x--------------- 
-10--10--10---9---9---9--10--10--10--14--14--14--12--12--10--10--------------- 
------------------------------------------------------------------------------ 


------------------------------------------------------------------------------ 
------------------------------------------------------------------------------ 
-12--12--12--11--11--11--12--12--12--14--14--14--12--12--11--11--------------- 
--x---x---x---x---x---x---x---x---x---x---x---x---x---x---x---x--------------- 
-10--10--10---9---9---9--10--10--10--12--12--12--10--10---9---9--------------- 
------------------------------------------------------------------------------ 


------------------------------------------------------------------------------ 
------------------------------------------------------------------------------ 
-12--12--12--11--11--11--12--12--12--16--16--16--14x-------------------------- 
--x---x---x---x---x---x---x---x---x---x---x---x---xx-------------------------- 
-10--10--10---9---9---9--10--10--10--14--14--14--12x-------------------------- 
------------------------------------------------------------------------------ 

------------------------------------------------------------------------------ 
------------------------------------------------------------------------------ 
-9-9-9--12\\11--12\\11--7-7-7---9\\7-9\\7----------------------------------------- 
-9-9-9---x-x----x-x---7-7-7---x-x-x-x--7-7-7--9-10--10-10--5-5-5-5-5-5-(x4)--- 
-7-7-7--10\\9---10\\9---5-5-5---7\\5-7\\5--7-7-7--9-10--10-10--5-5-5-5-5-5-------- 
---------------------------------------7-7-7--9-10--10-10--5-5-5-5-5-5-------- 
x x x x 

------------------------------------------------------------------------------ 
------------------------------------------------------------------------------ 
-9--9--9--9--9--9-11--11--11--11--11--11-12--12--12--12--12--12-11-11-11-11--- 
-x--x--x--x--x--x--x---x---x---x---x---x--x---x---x---x---x---x--x--x--x--x--- 
-7--7--7--7--7--7--9---9---9---9---9---9-10--10--10--10--10--10--9--9--9--9--- 
------------------------------------------------------------------------------ 
x x x x x x x x x x x x x x 

------------------------------------------------------------------------------ 
------------------------------------------------------------------------------ 
-9--9--9--9--9--9-11--11--11--11--11--11-12--12--12--12--12--12-11-11x-------- 
-x--x--x--x--x--x--x---x---x---x---x---x--x---x---x---x---x---x--x--xx-------- 
-7--7--7--7--7--7--9---9---9---9---9---9-10--10--10--10--10--10--9--9x-------- 
------------------------------------------------------------------------------ 
x x x x x x x x x x x x x 


------------------------------------------------------------------------------ 
------------------------------------------------------------------------------ 
-9-9-9---9\\8/9---9-9---9/11\\9----9-9---9\\8/9---9---11/12---14\\11-------------- 
-x-x-x---x-x-x---x-x---x--x-x----x-x---x-x-x---x----x--x----x-x--------------- 
-7-7-7---7\\6/7---7-7---7/-9\\7----7-7---7\\6/7---7----9/10---12\\9--------------- 
------------------------------------------------------------------------------ 

------------------------------------------------------------------------------ 
------------------------------------------------------------------------------ 
-9--9--9--11--11--12--12--9--9--9--11--11--12--12----------------------------- 
-x--x--x---x---x---x---x--x--x--x---x---x---x---x----------------------------- 
-7--7--7---9---9--10--10--7--7--7---9---9--10--10----------------------------- 
------------------------------------------------------------------------------ 


------------------------------------------------------------------------------ 
------------------------------------------------------------------------------ 
-14--14--14--12--12--11--11--14--14--14--12--12--11--11----------------------- 
--x---x---x---x---x---x---x---x---x---x---x---x---x---x----------------------- 
-12--12--12--10--10---9---9--12--12--12--10--10---9---9----------------------- 
------------------------------------------------------------------------------ 

------------------------------------------------------------------------------ 
------5b6r5b6-----5b6r5b6------5b6r5b6-----5b6r5b6------5b6r5b6----5b6r5b6---- 
------------------------------------------------------------------------------ 
-0-0-0--------0-0---------2-2-2--------2-2---------3-3-3--------3-3----------- 
-0-0-0--------0-0---------2-2-2--------2-2---------3-3-3--------3-3----------- 
-0-0-0--------0-0---------2-2-2--------2-2---------3-3-3--------3-3----------- 


------------------------------------------------------------------------------ 
------------------------------------------------------------------------------ 
------------------------------------------------------------------------------ 
-0-2-3-0-3-5-0-8-7-0-5-8-0-3-5------------------------------------------------ 
-0-2-3-0-3-5-0-8-7-0-5-8-0-3-5------------------------------------------------ 
-0-2-3-0-3-5-0-8-7-0-5-8-0-3-5------------------------------------------------ 

------------------------------------------------------------------------------ 
------5b6r5b6-----5b6r5b6------5b6r5b6-----5b6r5b6------5b6r5b6----5b6r5b6---- 
------------------------------------------------------------------------------ 
-0-0-0--------0-0---------2-2-2--------2-2---------3-3-3--------3-3----------- 
-0-0-0--------0-0---------2-2-2--------2-2---------3-3-3--------3-3----------- 
-0-0-0--------0-0---------2-2-2--------2-2---------3-3-3--------3-3----------- 


------------------------------------------------------------------------------ 
------------------------------------------------------------------------------ 
------------------------------------------------------------------------------ 
-0-2-3-0-3-5-0-8-7-0-5-8-0-3-5------------------------------------------------ 
-0-2-3-0-3-5-0-8-7-0-5-8-0-3-5------------------------------------------------ 
-0-2-3-0-3-5-0-8-7-0-5-8-0-3-5------------------------------------------------ 

------------------------------------------------------------------------------ 
------------------------------------------------------------------------------ 
------------------------------------------------------------------------------ 
-0~--0~--0-2-3-0-3-5-0-8-7-0-5-8-0-3-5-0-2-3-0-3-5-0-8-7-0-5-8-0-3-5---------- 
-0~--0~----------------------------------------------------------------------- 
-0~--0~----------------------------------------------------------------------- 
x x x x x x x x x x x x x x x x x x x x x x x x x x x x 

------------------------------------------------------------------------------ 
------------------------------------------------------------------------------ 
------------------------------------------------------------------------------ 
-0-2-3-0-3-5-0-8-7-0-5-8-0-3-5------------------------------------------------ 
-0-2-3-0-3-5-0-8-7-0-5-8-0-3-5------------------------------------------------ 
-0-2-3-0-3-5-0-8-7-0-5-8-0-3-5------------------------------------------------ 


------------------------------------------------------------------------------ 
------------------------------------------------------------------------------ 
------------------------------------------------------------------------------ 
-5--5-5-5-5-5-5-5-5----------------------------------------------------------- 
-5--5-5-5-5-5-5-5-5----------------------------------------------------------- 
-5--5-5-5-5-5-5-5-5----------------------------------------------------------- 
x x x x x x x x 

------------------------------------------------------------------------------ 
-7^--------------------------------------------------------------------------- 
----5^----7^-----(x8)--------------------------------------------------------- 
-------7^--------------------------------------------------------------------- 
------------------------------------------------------------------------------ 
------------------------------------------------------------------------------ 



Important: The song above is NOT stored on the Chordie server. The original song is hosted at www.xguitar.com. Chordie works as a search engine and provides on-the-fly formatting. Chordie does not index songs against artists'/composers' will. To remove this song please click here.

This song is displayed as text-only. Transposing and tuning is only available for chordpro-songs.

Login - add to songbook

Rating click stars to rate

Layout
Accuracy

SHARE PAGE  




You need to log in to post comments