Chordie logo


Let Me Put My Love Into You   Ac/Dc







AC/DC
Let me put my Love into You
Tabbed By : Derek Rodrigues

E-------------|---------------|--------------|-----------------------------
B-------------|---------------|--------------|-----------------------------
G-------------|---------------|--------------|----------2------------------
D--5---4---5--|---5---4---5---|---5---4---5--|---4------2------------------
A--7---5---7--|---7---5---7---|---7---5---7--|---5------0------------------
E-------------|---------------|--------------|-----------------------------
E-------------|---------------|--------------|-----------------------------
B-------------|---------------|--------------|-----------------------------
G-------------|---------------|--------------|----------2------------------
D--5---4---5--|---5---4---5---|---5---4---5--|---4------2------------------
A--7---5---7--|---7---5---7---|---7---5---7--|---5------0------------------
E-------------|---------------|--------------|-----------------------------

  Guitar 1
E--------------|-------------------|-------------------|-------------------¦
B--------------|-------------------|-------------------|-------------------¦
G--------------|-------------------|-------------------|-------------2-----¦
D--5---4---5---|-------5---4---5---|-------5---4---5---|------4------2-----¦
A--7---5---7---|-------7---5---7---|-------7---5---7---|------5------0-----¦
E--0---0---0---|--0----0---0---0---|--0----0---0---0---|--0-------0--------¦
                     
                     
  Guitar 2           
E--------------------------------------------------------------------------¦
B----------------------8---7---8^^---------8---7---8^^--------7------2-----¦
G----------------------9---7---9^^---------9---7---9^^--------7------2-----¦
D--5---4---5---------------------------------------------------------2-----¦
A--7---5---7---------------------------------------------------------0-----¦
E--0---0---0------0-------------------0-------------------0-------0--------¦
 Guitar 1 and 2   Flyin on a free flight, drivin'  all  night
E--------------|------------------------|------------------------|
B--------------|------------------------|------------------------|
G--------------|------------------------|------------------------|
D--5---4---5---|---------------5--4--5--|---------------5--4--5--|
A--7---5---7---|---------------7--5--7--|---------------7--5--7--|
E--0---0---0---|---------------0--0--0--|---------------0--0--0--|

  With  my   machinery.                'Cause  I     I  got  the  power
E------------------------|------------------------|------------------------|
B------------------------|------------------------|------------------------|
G-------------------2----|------------------------|------------------------|
D------------4------2----|---------------5--4--5--|---------------5--4--5--|
A------------5------0----|---------------7--5--7--|---------------7--5--7--|
G------------0-----------|---------------0--0--0--|---------------0--0--0--|

    Any  Hour             To show the man in me                   I got
E------------------------|------------------------|------------------------|
B------------------------|------------------------|------------------------|
G------------------------|--------------------2---|------------------------|
D---------------5--4--5--|-----------4--------2---|---------------5--4--5--|
A---------------7--5--7--|-----------5--------0---|---------------7--5--7--|
E---------------0--0--0--|-----------0------------|---------------0--0--0--|

     Reputations             Blown to pieces       With   my   artillery
E------------------------|------------------------|------------------------|
B------------------------|------------------------|------------------------|
G------------------------|------------------------|------------------2-----|
D---------------5--4--5--|---------------5--4--5--|--------4---------2-----|
A---------------7--5--7--|---------------7--5--7--|--------5---------0-----|
E---------------0--0--0--|---------------0--0--0--|--------0---------------|

              Oh,   I'll     be   guidin'             we'll  be  ridin'
E------------------------|------------------------|------------------------|
B------------------------|------------------------|------------------------|
G------------------------|------------------------|------------------------|
D---------------5--4--5--|---------------5--4--5--|---------------5--4--5--|
A---------------7--5--7--|---------------7--5--7--|---------------7--5--7--|
E---------------0--0--0--|---------------0--0--0--|---------------0--0--0--|

  Give a what U got to me.
E------------------------|
B------------------------|
G-------------------2----|
D------------4------2----|
A------------5------0----|
G------------0-----------|


                      Don't you struggle          Don't you fight
E------------------|---------------------------|----------------------------
B---------3--------|------------------3--------|--------------------3-------
G--0--2\4---4\2\0--|-----------0--2\4---4\2\0--|--2-----2----0--2\4---4\2\0-
D------------------|--2-----2------------------|--2-----2-------------------
A------------------|--2-----2------------------|--0-0-0-0-------------------
E------------------|--0-0-0-0------------------|----------------------------
   Don't you worry     'cause it's  your turn tonite
E--------------------------------|----------------------------------
B------------------------3-------|----------------------------------
G-----------------0--2\4---4\2\0-|--2--2-------2--------2---2---2---
D--2-----2-----------------------|--2--2-------2--------2---2---2---
A--2-----2-----------------------|--0--0-------0--------0---0---0---
E--0-0-0-0-----------------------|---------3------------------------

    Let me put my love into you  babe
E-------------------------------|-----------------------|
B---7---------------------------|-----------------------|
G---7-------------------9---9---|-------9---9---9-------|
D---7----------7--7-----9---9---|-------9---9---9-------|
A---5----------7--7-----7---7---|-------7---7---7-------|
E--------------5--5-----0---0---|-------0---0---0---0---|

    Let me put my love on the Line 
E-------------------------------|-----------------------|
B---7---------------------------|-----------------------|
G---7-------------------9---9---|-------9---9---9-------|
D---7----------7--7-----9---9---|-------9---9---9-------|
A---5----------7--7-----7---7---|-------7---7---7-------|
E--------------5--5-----0---0---|-------0---0---0---0---|

    Let me put my love into you  babe           Let me
E-------------------------------|-----------------------|
B---7---------------------------|-----------------------|
G---7-------------------9---9---|-------9---9---9-------|
D---7----------7--7-----9---9---|-------9---9---9-------|
A---5----------7--7-----7---7---|-------7---7---7-------|
E--------------5--5-----0---0---|-------0---0---0---0---|

    Cut your cake with my knife
E-------------------------0---|-------------------------|
B---7---------------------0---|--------------8---7---8--|
G---7---------------------0---|--------------9---7---9--|
D---7-------------7-------2---|--------------5---4---5--|
A---5-------------7-------2---|--------------7---5---7--|
E-----------------5-------0---|---0----------0---0---0--|
This is most of the Rhythm, and I will repost this later with the solo.


Important: The song above is NOT stored on the Chordie server. The original song is hosted at www.xguitar.com. Chordie works as a search engine and provides on-the-fly formatting. Chordie does not index songs against artists/composers will. To remove this song please click here.

This song is displayed as text-only. Transposing and tuning is only available for chordpro-songs.

Login - add to songbook

Rating click stars to rate

Layout
Accuracy

SHARE PAGE  




You need to log in to post comments