Boogie Man

Ac/Dc

----------                                    Tab by S.Mueller

e|----------------------------|    e|------------------------------------|

b|----------------------------|    b|------------------------------------|

g|2-0--2-2--0--2-2--0--2-2----|    g|-7-9-7---5------------7-9-7----5----|

D|0-0--0-0--0--0-0--0--0-0----|    D|--------------7---------------------|

A|----------------------------|    A|------------------------------------|

E|----------------------------|    E|------------------------------------|    

e|-------------3--|       e|----------------------------|

b|--------2----3--|       b|----------------------------|

g|-2--0---3-------|       g|2-0--2-2--0--2-2--0--2-2----| & Pattern 1b

D|-2--0-----------|       D|2-0--2-2--0--2-2--0--2-2----|

A|----------------|       A|----------------------------|

E|--------2----3--|       E|----------------------------|


 E5D5A5G5A5G5A5G5A5
e|---------------------|------------------|----------------------------|
b|---------------------|-2-2--2-2-2-2-2-2-|----------------------------|
g|---------------------|-3-3--3-3-3-3-3-3-|2-0--2-2--0--2-2--0--2-2----|
D|-2-2-2--2-2-2--2-2-2-|-0-0--0-0-0-0-0-0-|2-0--2-2--0--2-2--0--2-2----|
A|-2-2-2--2-2-2--2-2-2-|------------------|----------------------------|
E|---------------------|------------------|----------------------------|

And don't let the sun come up on me, your Boogie Man
 E5D5A5G5A5G5A5G5A5
e|---------------------|------------------|----------------------------|
b|---------------------|-2-2--2-2-2-2-2-2-|----------------------------|
g|---------------------|-3-3--3-3-3-3-3-3-|2-0--2-2--0--2-2--0--2-2----|
D|-2-2-2--2-2-2--2-2-2-|-0-0--0-0-0-0-0-0-|2-0--2-2--0--2-2--0--2-2----|
A|-2-2-2--2-2-2--2-2-2-|------------------|----------------------------|
E|---------------------|------------------|----------------------------|

I'm your Boogie Man , your Boogie Man





































A5 D5 E5 G5
variations - click chord images
Transpose chords:
Tuning:
Cool service:
View: Size:
A  A  A
Rating:
Layout:
  • Currently 2.6/5 Stars.
  • 1
  • 2
  • 3
  • 4
  • 5
 
Accuracy:
  • Currently 2.6/5 Stars.
  • 1
  • 2
  • 3
  • 4
  • 5
 
click stars to rate
Chordie recommends:
Learn to play guitar with video-based, online guitar lessons at JamPlay.com
Songbook:
Login to add this song to your songbook
Support the artist
Preview/buy this song
MSN Music
Why this non-profit ad?

 
login to add comments/video/corrections