Heatseeker

Ac/Dc

 E5B5
e|----------------------------------------------------------0-----0---0-------|
b|-x-----5----------------5----------------5--5--5--5-------0-----0---0-------|
g|-x-4---4-4--4--4--2--4--4-4--4--4--2--4--4--4--4--4--0-1--------1---1-----4-|
D|-x-4---2-2--2--2--2-------2--2--2--2--------2--2--2----------x---------0--4-|
A|-x-2---------------------------------------------------------x---------0--2-|
E|-x--------------------------------------------------------------------------|

Pattern 1:
 B
e|----------------------------------------------------------------------------|
b|----------------------------------------------------------------------------|
g|--4-----4---4--4-----4--4--4--4--4-----4--4----4-----4---4--4-----4--4--4--4|
D|--2--4--4---4--2--4--4--4--4--4--2--4--4--4----2--4--4---4--2--4--4--4--4--4|
A|2---------2----------2-----------------------2---------2----------2---------|
E|----------------------------------------------------------------------------|

end P1
e|-------------|
b|-------------|
g|-4-----4--4--|
D|-2--4--4--4--|
A|-------------|
E|-------------|

Pattern 2:
 ABEABsus4E
e|-5------------------------------5-------------------------------------------|
b|-5---4---9-----9--9---9-9-9--9--5-----5----9----9--9---9--9--9--9-----------|
g|-2---4---9-----9--9---9-9-9--9--2-----4----9----9--9---9--9--9--9-----------|
D|-2---4---9-----9--9---9-9-9--9--2-----4----9----9--9---9--9--9--9-----------|
A|-0---2---7-----7--7---7-7-7--7--0-----2----7----7--7---7--7--7--7-----------|
E|---------0-----0--0---0-0-0--0-------------0----0--0---0--0--0--0-----------|

Pattern 3: E5-Rock-Feel...
e|-------------------------------------------------------------------|
b|-------------------------------------------------------------------|
g|-4-----4-----4-----6-----4-------4-----4-----4-----6-----4---------|
D|-2-2-2-2-2-2-2-2-2-2-2-2-2-2-2-2-2-2-2-2-2-2-2-2-2-2-2-2-2-2-2-2---|
A|-------------------------------------------------------------------|
E|-------------------------------------------------------------------|

Heat-seek-er,...
e|----------------------------------------------------------------------------|
b|----------------------------------------------------------------------------|
g|---4-----4----4--4-----4--4--4--4--4-----5--7-----7---7--4--5--7--7--7--4--5|
D|---2--4--4----4--2--4--4--4--4--4--2--4--5--7-----7---7--4--5--7--7--7--4--5|
A|-2---------2-----------2-----------------3--5-----5---5--2--3--5--5--5--2--3|
E|----------------------------------------------------------------------------|

...down,
e|-------------------------------------------|
b|-------------------------------------------|
g|-7---4--5--7---4--5--7---4--2-----2--2--4--|
D|-7---4--5--7---4--5--7---4--2-----2--2--4--|
A|-5---2--3--5---2--3--5---2--0-----0--0--2--|
E|-------------------------------------------|

Solo: ph b b ph
e|----------------------------------------------------------------------------|
b|---------------------0-2--3----2--0-2--3--2--<3>------0--2--3----0--2--3--0-|
g|-------<4>------------------------------------------------------------------|
D|----------------------------------------------------------------------------|
A|-2--2--------2---2----------------------------------------------------------|
E|----------------------------------------------------------------------------|

ph b
e|----------------------------------------------------------------------------|
b|---3--0----3--0-----------------------------------------------------10-12---|
g|2--------2-------2-----------------------------4------4------<4>------------|
D|--------------------4--2--0--4--2--0--4--2--0-------------------------------|
A|----------------------------------------------------------------------------|
E|----------------------------------------------------------------------------|

~~~~~~~ b
e|---------------7--10-7-9-7-9-7----7-----------------------------------------|
b|-----------19------------------10----10--7----7-----------------------9--10-|
g|-------------------------------------------10---9-7----------------7--9--10-|
D|-----------------------------------------------------9---9------------------|
A|----------------------------------------------------------------------------|
E|----------------------------------------------------------------------------|

r b b b r b r
e|----------------------------------------------------------------------------|
b|-9-9--10--9--10--------------------------------------12--10---9--10--9--10--|
g|-9-9--10--9--10--7-----------------------------------13--11---9--10--9--10--|
D|-----------------------9-------7-7-7-7-7--9-4-0--0--------------------------|
A|---------------------------9------------------------------------------------|
E|----------------------------------------------------------------------------|

b r b b b b b b
e|---------------------------------------12----------17------------17-----17--|
b|9---7--9---10--9--7--9--9--10--9--10--------17-19-----17--19--17-19--17-19--|
g|9---7--9---10--9--7--9--9--10--9--10----------------------------------------|
D|----------------------------------------------------------------------------|
A|----------------------------------------------------------------------------|
E|----------------------------------------------------------------------------|

 bbbb
e|-17--17--17--17------17-----17-----17-----17---\----|
b|-19--19--19--19---17-19--17-19--17-19--17-19---\----|
g|----------------------------------------------------|
D|----------------------------------------------------|
A|----------------------------------------------------|
E|----------------------------------------------------|

w/patt1 ub ub ub ub b ~~~~~~
e|------------------------|-----------|-----7------7------7-------7--17-19----|
b|------------------------|-----------|-10-12--10-12--10-12---10-12-----------|
g|----4----4-----4--4--4--|-----------|---------------------------------------|
D|----2--4-4-----4--2--4--|-----------|---------------------------------------|
A|-2----------2--------2--|-----------|---------------------------------------|
E|------------------------|-----------|---------------------------------------|

ending Solo-...
ub ub ub ub ub ~~~~~~~ ~~~~~~ ~~~~~~
e|----19------19----------19-------19-----------19----------------------------|
b|-22-24---22-24---22--22-24----22-24----22--22-24----------------------------|
g|---------------------------------------------------4-------2----------------|
D|------------------------------------------------------------------4---------|
A|----------------------------------------------------------------------------|
E|----------------------------------------------------------------------------|

b ~~~~~~~~~~~~~~~~~~~~~
e|-----------------------------------|
b|-----------------------------------|
g|-----------------------------------|
D|-----------------------------------|
A|-5--6-----2------------------------|
E|-----------------------------------|












A B B5 Bsus4 E E5
variations - click chord images
Transpose chords:
Tuning:
Cool service:
View: Size:
A  A  A
Rating:
Layout:
  • Currently 3.2/5 Stars.
  • 1
  • 2
  • 3
  • 4
  • 5
 
Accuracy:
  • Currently 2.2/5 Stars.
  • 1
  • 2
  • 3
  • 4
  • 5
 
click stars to rate
Chordie recommends:
Learn to play guitar with video-based, online guitar lessons at JamPlay.com
Songbook:
Login to add this song to your songbook
Support the artist
Preview/buy this song
MSN Music
Why this non-profit ad?

 
login to add comments/video/corrections