"yes"; ?> Squealer by Ac/Dc - guitar chords, guitar tabs and lyrics - chordie

Squealer

Ac/Dc

| F G5 D5 (Play 4 times
|  |--------------|-------------|--------------|------------|
|  |--------------|-----------3-|--------------|------------|
|  |-2------------|-----------2-|--------------|------------|
|  |-3----------0-|-----------0-|--------------|------------|
|  |-3----------0-|-------------|--------------|------------|
|  |-1----------3-|-------------|--------------|------------|

|
| (End bass fig 1)
| Bass fig.1 (arr. for guitar)
|  |--------------|-------------|--------------|------------|
|  |--------------|-------------|--------------|------------|
|  |--------------|-------------|--------------|------------|
|  |--------------|---------3---|--------------|---------3--|
|  |-5-3--5---3-5-|--3-5--5-----|-5-3--5---3-5-|--3-5--5----|
|  |--------5-----|-------------|--------5-----|------------|

\
After the Intro play Bass figure 1 7 times
Then play Bass figure 2 8 times
|----------------|-----------|
|----------------|-----------|
|----------------|-----------|
|----------------|-----------|
|-2-0-2--2---0-2-|--0-2--2-0-|
|----------2-----|-----------|

The way to play:
Intro: Play 4 times with Bass figure 1
with bass fig 1, 7 times
 D5
She said she'd never been, Hmmm,
Never been touched before.
with bass fig 2, 8 times
 B5
She said she'd never been
 D5
This far before.
Rhy. fig 1 with rhy. fig 1, 3 times
 D5
She said she'd never liked, um,_____
To be exited.
with bass fig 2, 2 times
 BB
She said she always had, 
 D5
Had to fight it. (And she never won.)
Rhy. fig 2 with rhy. fig 2, 3 times
 C5D5
She said she never been,
 C5D5C5D5
Never been balled before.   
Rhy. fig 3 with rhy. fig 3
 B/AB5
 And I don't think,
with Bass fig. 1, 6 times
with Rhy. fig. 2, 6 times
 C5D5
She'll ever ball no more. (Fixed her good)
 C5D5
Hey (Squealer)
 C5D5
When I held her hand, (Squealer)
 C5D5
I made her understand. (Squealer)
 CDD5
When I kissed her lips, (Squealer)
with rhy. fig. 3, 2 times
with Bass fig. 2, 2 times
 B/AB5
Sucked her finger tips, hey! (Squealer)
 B/AB5
Ooh, we started gettin' hot, (Squealer)
with Rhy. fig. 2, 2 times
with Bass fig. 1, 2 times
 C5D5
Um, made it hard to stop. (Squealer)
 C5D5
Got too much, (Squealer)
=========================================================
Squealer by AC/DC
tabbed by Clemens Fehlow
Intro (4x):
E|--------------------|-------------------|------------------|
B|--------------------|-------------------|------------------|
G|--2--------------4--|----------------7--|------------------|
D|--3--------------5--|----------------7--|------------------|
A|--3--------------5--|----------------5--|------------------|
E|--1--------------3--|-------------------|------------------|

Verse 1:
never been never been
|-------------------|--|--|--|--|--|--|--|-------------------|--|--|
|-------------------|--|--|--|--|--|--|--|-------------------|--|--|
|--7----------------|--|--|--|--|--|--|--|--4----------------|--|--|
|--7----------------|--|--|--|--|--|--|--|--4----------------|--|--|
|--5----------------|--|--|--|--|--|--|--|--2----------------|--|--|
|-------------------|--|--|--|--|--|--|--|-------------------|--|--|

before Verse 2: never liked
|--|-------------------|--|--|--|-------------------|--|
|--|-------------------|--|--|--|-------------------|--|
|--|--7----------------|--|--|--|--7----------------|--|
|--|--7----------------|--|--|--|--7----------------|--|
|--|--5----------------|--|--|--|--5----------------|--|
|--|-------------------|--|--|--|-------------------|--|

excited
|-------------------|------------------|-------------------|------------------|
|-------------------|------------------|-------------------|------------------|
|--7----------------|------------------|--7----------------|------------------|
|--7----------------|------------------|--7----------------|------------------|
|--5----------------|------------------|--5----------------|------------------|
|-------------------|------------------|-------------------|------------------|

always had
|-------------------|------------------|-------------------|------------------|
|-------------------|------------------|-------------------|------------------|
|--7----------------|------------------|--4----------------|------------------|
|--7----------------|------------------|--4----------------|------------------|
|--5----------------|------------------|--2----------------|------------------|
|-------------------|------------------|-------------------|------------------|

fight it
|-------------------|------------------|-------------------|------------------|
|-------------------|------------------|-------------------|------------------|
|--4----------------|------------------|--7----------------|------------------|
|--4----------------|------------------|--7----------------|------------------|
|--2----------------|------------------|--5----------------|------------------|
|-------------------|------------------|-------------------|------------------|

Verse 3: never been
|-------------------|------------------|--------------------|------------------|
|-------------------|------------------|--------------------|------------------|
|--7----------------|------------------|--5--7--------------|------------------|
|--7----------------|------------------|--5--7--------------|------------------|
|--5----------------|------------------|--3--5--------------|------------------|
|-------------------|------------------|--------------------|------------------|

before
|--------------------|------------------|--------------------|------------------|
|--------------------|------------------|--------------------|------------------|
|--5--7--------------|------------------|--5--7--------------|------------------|
|--5--7--------------|------------------|--5--7--------------|------------------|
|--3--5--------------|------------------|--3--5--------------|------------------|
|--------------------|------------------|--------------------|------------------|

I don't think
|--------------------|------------------|--------------------|------------------|
|--------------------|------------------|--------------------|------------------|
|--5--7--------------|------------------|--2--4--------------|------------------|
|--5--7--------------|------------------|--2--4--------------|------------------|
|--3--5--------------|------------------|--0--2--------------|------------------|
|--------------------|------------------|--------------------|------------------|

no more
|--------------------|------------------|--------------------|------------------|
|--------------------|------------------|--------------------|------------------|
|--2--4--------------|------------------|--5--7--------------|------------------|
|--2--4--------------|------------------|--5--7--------------|------------------|
|--0--2--------------|------------------|--3--5--------------|------------------|
|--------------------|------------------|--------------------|------------------|

squealer when I held her hand
|--------------------|------------------|--------------------|------------------|
|--------------------|------------------|--------------------|------------------|
|--5--7--------------|------------------|--5--7--------------|------------------|
|--5--7--------------|------------------|--5--7--------------|------------------|
|--3--5--------------|------------------|--3--5--------------|------------------|
|--------------------|------------------|--------------------|------------------|

squealer I made her understand squealer when I kissed her lips
|--------------------|------------------|--------------------|------------------|
|--------------------|------------------|--------------------|------------------|
|--5--7--------------|------------------|--5--7--------------|------------------|
|--5--7--------------|------------------|--5--7--------------|------------------|
|--3--5--------------|------------------|--3--5--------------|------------------|
|--------------------|------------------|--------------------|------------------|

squealer sucked her fingertips squealer she was startin...
|--------------------|------------------|--------------------|------------------|
|--------------------|------------------|--------------------|------------------|
|--5--7--------------|------------------|--2--4--------------|------------------|
|--5--7--------------|------------------|--2--4--------------|------------------|
|--3--5--------------|------------------|--0--2--------------|------------------|
|--------------------|------------------|--------------------|------------------|

squealer made it hard to stop squealer got too much
|--------------------|------------------|--------------------|------------------|
|--------------------|------------------|--------------------|------------------|
|--2--4--------------|------------------|--5--7--------------|------------------|
|--2--4--------------|------------------|--5--7--------------|------------------|
|--0--2--------------|------------------|--3--5--------------|------------------|
|--------------------|------------------|--------------------|------------------|

squealer I think...
|--------------------|------------------|
|--------------------|------------------|
|--5--7--------------|------------------|
|--5--7--------------|------------------|
|--3--5--------------|------------------|
|--------------------|------------------|

solo part:
|-----------------------|----------------------|------------------------|
|-----------------------|----------------------|------------------------|
|--2--4------4----2--4--|----2--4----4----4----|--2--4--4----4----2--4--|
|--2--4------4----2--4--|----2--4----4----4----|--2--4--4----4----2--4--|
|--0--2------2----0--2--|----0--2----2----2----|--0--2--2----2----0--2--|
|-----------------------|----------------------|------------------------|
|----------------------|------------------------|----------------------|
|----------------------|------------------------|----------------------|
|----2--4----4----4----|--5--7--7----7----5--7--|----5--7----7----7----|
|----2--4----4----4----|--5--7--7----7----5--7--|----5--7----7----7----|
|----0--2----2----2----|--3--5--5----5----3--5--|----3--5----5----5----|
|----------------------|------------------------|----------------------|
|------------------------|----------------------|
|------------------------|----------------------|
|--5--7--7----7----5--7--|----5--7----7----7----|
|--5--7--7----7----5--7--|----5--7----7----7----|
|--3--5--5----5----3--5--|----3--5----5----5----|
|------------------------|----------------------|

end pattern: go on till end:
|--------------------|------------------|--------------------|
|--------------------|------------------|--------------------|
|--2--------------4--|------------------|--5--7--------------|
|--3--------------5--|------------------|--5--7--------------|
|--3--------------5--|------------------|--3--5--------------|
|--1--------------3--|------------------|--------------------|



B B5 C5 D5
variations - click chord images
Transpose chords:
Tuning:
Cool service:
View: Size:
A  A  A
Rating:
Layout:
  • Currently 2.4/5 Stars.
  • 1
  • 2
  • 3
  • 4
  • 5
 
Accuracy:
  • Currently 2.4/5 Stars.
  • 1
  • 2
  • 3
  • 4
  • 5
 
click stars to rate
Chordie recommends:
Learn to play this song & others via video guitar lessons at JamPlay.com
Songbook:
Login to add this song to your songbook
Support the artist
Preview/buy this song
MSN Music
Why this non-profit ad?

 
login to add comments/video/corrections