Guitar Tabs, Chords and Lyrics


T.N.T.   Ac/Dc



Date: Mon, 27 May 1996 19:45:58 -0700
Subject: AC/DC   TNT



AC/DC	    T.N.T
From The Album High Voltage

THIS TAB WAS CORRECTED BY RILEY.  


P.M.=PALM MUTE		L.R.=LET NOTE(S) RING


 ALL PARTS ARE PLAYED WITH JUST A LITTLE BIT OF DISTORTION.

   		    INTRO     
E-|---|----|-----------------------|-----------------
B-|---|----|-----------------------|-----------------
G-|---|----|-----------------------|-----------------
D-|-2-|----|-2---------------------|-----------------
A-|-2-|----|-2-----5--7---5--7--5--|-----------------
E-|-0-|----|-0-----3--5---3--5--3--|-----------------
   L.R.			               P.M.

	VERSE (SAME AS INTRO)
E--|------------------------|------------------------
B--|------------------------|------------------------
G--|------------------------|------------------------
D--|--2---------------------|------------------------
A--|--2-----5--7------------|------------------------
E--|--0-----3--5---3--5--3--|------------------------	        
		               	P.M.

		    PLAY THIS PART AFTER CHORUS
    CHORUS	    IS PLAYED FOR THE LAST TIME 
E--|----------|---------------------------------------
B--|----------|---------------------------------------
G--|----------|---------------------------------------
D--|--------2-|-2-------------------------------------
A--|--7--5--2-|-2--5--7-------------------------------
E--|--5--3--O-|-0--3--5-------------------------------
	4x		  L.R.

THE SOLO AT THE END OF THE SONG IS PLAYED IN E MINOR 
PENTATONIC. 



Important: The song above is NOT stored on the Chordie server. The original song is hosted at www.xguitar.com. Chordie works as a search engine and provides on-the-fly formatting. Chordie does not index songs against artists/composers will. To remove this song please click here.

This song is displayed as text-only. Transposing and tuning is only available for chordpro-songs.

Login - add to songbook

Rating click stars to rate

Layout
Accuracy

Jango Player

SHARE PAGE  




You need to log in to post comments