"yes"; ?> Overdose by Ac/Dc - guitar chords, guitar tabs and lyrics - chordie

Overdose

Ac/Dc

  e ----------2---|--------|--------|-------||----------2--|-----------

  b -------0------|-----0--|--------|-------||-------0-----|-----------

  g ----2---------|--------|--------|-------||----2--------|-----------

  D --------------|-1------|--------|-------||-------------|-----------

  A -2------------|-2------|--------|-------||-2-----------|-----------

  E --------------|--------|--------|-(1)---||-------------|-----------

  e --------0--|-------|---------2-|-------|--------0--|--0-||

  b ------0----|-------|-----0-----|-------|-----0-----|--0-||

  g ----1------|-------|---2-------|-------|---1-------|--1-||

  D -----------|-------|-----------|-------|-----------|--2-||

  A -----------|-------|-2---------|-------|-----------|--2-||

  E -0---------|-------|-----------|-------|-0---------|--0-||

  e ----------2---|----------|--------0----|------------|\-------------

  b -------0------|----------|------0------|------------||-------------

  g ----2---------|----------|----1--------|------------||----------4--

  D --------------|----------|-------------|------------||----------4--

  A -2------------|----------|-------------|------------||----------2--

  E --------------|----------|--0----------|------------|/-------------

  e ------------------|------------------|

  b ----3-------------|----3-------------| play 3 times

  g ----2----------4--|----2----------4--|

  D ----0---2------4--|----0---2------4--|

  A --------2---2--2--|--------2---2--2--|

  E --------0---0-----|--------0---0-----|


 D5E5B5D5E5B5D5E5B5
  1. I never stole me no cigarettes,            I never drank much booze.
 D5E5B5D5E5B5D5E5B5D5E5B5
       But I`m only a man, don`t you understand ,  A man can sometimes lose.
 D5E5B5D5E5B5D5E5B5D5E5
              You gave me somethin` I never had,     Pulled me down with you.
 D5D5E5B5D5E5B5D5E5B5D5E5B5
              Help me up,    bring on the love, Hope you can pull me through.
 ED
     I overdosed on you,             I overdosed on you,
|Fig1. |
  e -----------------|-------------(2)|---------------|
  b -----------------|--------------3-|---------------|
  g ---4---4-4-4-----|-(1)----------2-|---------------|
  D ---4---4-4-4-----|--2-----------0-|---------------|
  A ---2---2-2-2-----|--2-------------|---------------|
  E -----------------|--0-------------|---------------|

 EDE
          Fig.3 (2x)  Crazy but i`ts true, 
 ED
   Ain`t nothing I can do.                      I overdosed on
  e ---------------------------------------------2------2-----2-
  b ---------------------------------------------3------3-----3-
  g ----------------------1----------------------2------2-----2-
  D ----------------------2----------------------0------0-----0-
  A ----------------------2-------------------------------------
  E ----------------------0-------------------------------------

First short solo played with Fig.2 (4 Times)
~~~~~~~~ # # ~~~~~
  e -------------------------------------------------------------------
  b -------------------------------------------------------------------
  g ------------------------------------------------------------------- #=p.h.
  D --7-9---------7---------7-9-7---6-7-6-4-6-4--2-------2-4-4-2-4-4--- pinch harmonic
  A -------------------------------------------------------------------
  E -------------------------------------------------------------------

bend ~~~~~ release b.
  e --------------------------------------------2---------------------------------
  b ----------------------------2--3--5--3---5------3---5----(6)-----5----5----7--
  g ----------1----2-----1--2-4---------------------------------------------------
  D --4---2-4---------------------------------------------------------------------
  A ------------------------------------------------------------------------------
  E ------------------------------------------------------------------------------

Second solo played with Fig.2 (16 Times)
~~~~~~~ ~~~~~ ~~~~~
  e -------------------------------------------------------------------
  b -------------------------------------------------------------------
  g -------------------------------------------------------------------
  D --7-9------------------7-7--7-9-----------7-9------7-7--9----7-7-9-
  A -------------------------------------------------------------------
  E -------------------------------------------------------------------

~~~~~~~ #~~~~~~~ b ~~~~
  e -------------------------------------------------------------------
  b -------------------------------------------------------------------
  g ----------------------------7-(8)---------7---------7--------------
  D --7-7-9--------7-7-9--------------9-7-9------9-7-9----9-9-7-9------
  A -------------------------------------------------------------------
  E -------------------------------------------------------------------

b ~~~~~~~ b
  e -------------------------------------------------------7-----------
  b -------------------------------7-6-----------------------10--7----7
  g 9---11---9--9-7--------9--11-------9-7-9-7---9------------------9--
  D ---------------9---------------------------9---9-------------------
  A -------------------------------------------------------------------
  E -------------------------------------------------------------------

b b b b r b
  e --------------7------------------------------7---------------------
  b ------------7---7--10-(12)--10-(12)--10-(11)---(11)-10-7---10--(12)
  g -7--9--(11)----------------------------------------------9---------
  D -------------------------------------------------------------------
  A -------------------------------------------------------------------
  E -------------------------------------------------------------------

 bbbb
  e -7----------------7----------------7------------7-------------7----
  b ---10-7-10---(12)---10-7-10---(12)---10-7--10-12--10-7--10-12--10-7
  g -------------------------------------------------------------------
  D -------------------------------------------------------------------
  A -------------------------------------------------------------------
  E -------------------------------------------------------------------

 bbbbbb
  e------7-----------7-----------7-----------7-----------7-----------7------
  b-10-12--10-7-10-12--10-7-10-12--10-7-10-12--10-7-10-12--10-7-10-12--10-7-
  g -------------------------------------------------------------------
  D -------------------------------------------------------------------
  A -------------------------------------------------------------------
  E -------------------------------------------------------------------

 bbbbbb
  e------7--------------------------------------------------22-24-25---
  b-10-12--10-7-10------12----22-(24)---22-(24)------\-----------------
  g -------------------------------------------------------------------
  D -------------------------------------------------------------------
  A -------------------------------------------------------------------
  E -------------------------------------------------------------------

b ~~~~~~~
  e -22-24--22-19------------------------------------------------------
  b --------------22-19-22----19---------------------------------------
  g -----------------------21----21-22-19----21----19----20------------
  D --------------------------------------21----21-----------21---21---
  A -------------------------------------------------------------------
  E -------------------------------------------------------------------

 bb
  e ----------------------------19-------------------------------------
  b -----------------22-----24------22-19-22-19-19-19------------------
  g ------x--x---x------------------------------------22-21-19-21-23---
  D -\-----------------------------------------------------------------
  A -------------------------------------------------------------------
  E -------------------------------------------------------------------

 bb
  e -------------------------22---25--22-24--22--21-19-----------------
  b -19-22-19----19-----------------------------------22-21-19----19---
  g ----------22----22-21-19-----------------------------------21----22
  D -------------------------------------------------------------------
  A -------------------------------------------------------------------
  E -------------------------------------------------------------------

~~~~~~~ Fig. 2 (4 Times)
  e -------------------------------------------------------------------
  b -------------------------------------------------------------------
  g 21-19----------------------------x-16-16-16\----16----\--/15-15---16
  D ------2119---------------------------------------------------------
  A ----------21\-19-17-19-17------------------------------------------
  E -------------------------------------------------------------------


  e -------------------------------------------------------7----7-10-7-
  b ------------------------19-22--19--19-17-----------------10--------
  g -16---16--16-16-\--x--x-----------------19-19-18-16-\--------------
  D -------------------------------------------------------------------
  A -------------------------------------------------------------------
  E -------------------------------------------------------------------
  e -----7---------------------------------5-/7-10-7----9--------7-\---
  b 10-7---7-------------------3-5-3-7-5-7-----------7----7-9-10-------
  g ---------9-7---9-7-------4-----------------------------------------
  D -------------9-----------------------------------------------------
  A -------------------------------------------------------------------
  E -------------------------------------------------------------------
  e -----x----22-19----22-19----22-19----22-19----------19----------19-
  b -x-x---19-------19-------19-------19-------19-22-19----19-22-19----
  g -------------------------------------------------------------------
  D -------------------------------------------------------------------
  A -------------------------------------------------------------------
  E -------------------------------------------------------------------

b ~~~~~~~
  e ---22-19----------19----19----------------
  b 19-------19-19-22----19----22-24-------\--
  g ------------------------------------------    vocals ad lib throughout
  D ------------------------------------------
  A ------------------------------------------
  E ------------------------------------------    play Take 4 4 Times! ...

 B7E5
  e ||--------2-------|-------2-------|------0------|--------0-----------||
  b ||------0-----0---|-----0---0---0-|----0----0---|------0---0---------||
  g ||*---2---------2-|---2-------2---|--1--------1-|----1-------1------*||
  D ||*---------------|---------------|-------------|-------------------*||
  A ||--2-------------|-2-------------|-------------|--------------2-----||
  E ||----------------|---------------|-0-----------|--0-----------------||

 B7E5
  e -------2----2--|--2------2-----0|----0-----0----|0----0-----0------
  b -----0----0----|0-----0------0--|--0-----0----0-|---0-----0---0----
  g ---2----2----2-|---2------2-----|1-----1----1---|-1-----1----------
  D ---------------|----------------|---------------|------------------
  A -2-------------|----------------|---------------|------------------
  E ---------------|----------------|---------------|------------------

 B7B5
  e -------2----2--|---2-----2------|------0-----0--|---0----0---0-----
  b -----0----0---0|-----0-----0----|----0-----0----|-0----0---0---0---
  g ---2----2------|2------2-----2--|--1-----1-----1|----1-------------
  D ---------------|----------------|---------------|------------------
  A -2-------------|----------------|---------------|------------------
  E ---------------|----------------|-0-------------|------------------

 B7
  e -------2-------|-------2--------|-------2-------|
  b -----0---0-----|-----0---0------|-----0---0-----|
  g ---2-------2---|---2-------2----|---2-------2---|
  D ---------------|----------------|---------------|
  A -2-------------|2---------------|-2-------------|
  E ---------------|----------------|---------------|

Guitar 1- 5 x B7 x21202 Guitar 2- 5 x B5 x244xx
----------------------



B5 B7 D D5 E E5
variations - click chord images
Transpose chords:
Tuning:
Cool service:
View: Size:
A  A  A
Rating:
Layout:
  • Currently 2.7/5 Stars.
  • 1
  • 2
  • 3
  • 4
  • 5
 
Accuracy:
  • Currently 2.9/5 Stars.
  • 1
  • 2
  • 3
  • 4
  • 5
 
click stars to rate
Chordie recommends:
Get acoustic guitar lessons and electric guitar lessons at JamPlay.com
Songbook:
Login to add this song to your songbook
Support the artist
Preview/buy this song
MSN Music
Why this non-profit ad?

 
login to add comments/video/corrections