Chordie logo

Stiff Upper Lip   Ac/Dc



Stiff Upper Lip by AC/DC
tabbed by Steven Taylor

Intro:
E|-----5--------5------------------------------5---------5--------------
B|--8b-5--8--5--5---7--5-5-----7-------5----8b-5---8--x--5----7--5-5----
G|------------------7--5h6-----7-------5--------------7-------7--5h6----
D|----------------------------------------------------------------------
A|--0--0--0--0--0---0--0-0-0--0--0--0--0----0--0---0--0--0----0--0-0-0--
E|----------------------------------------------------------------------

E|-------------------5---------5-------------------------
B|-----7------5---8b-5---8--x--5--7--5-5--------7-----5--
G|-----7------5-------------7-----7--5h6--------7-----5--
D|-------------------------------------------------------
A|--0--0---0--0---0--0---0--0--0--0--0-0-0---0--0--0--0--
E|-------------------------------------------------------

E|-----5---------5------------------------
B|--8b-5---8--x--5--7--5-5-------7-----5--
G|------------7-----7--5h6-------7-----5--
D|----------------------------------------
A|--0--0---0--0--0--0--0-0-0--0--0--0--0--
E|----------------------------------------

E|-----5---------5---------------------------------
B|--8b-5---8--x--5----7--5-5--------7----7--5------
G|------------7-------7--5h6--------7----7--5------
D|----------------------------------------------7--
A|--0--0---0--0--0----0--0-0-0---0--0----0--0---7--
E|-------------------------------------------------

Angus plays this for the Verse:
E|-------5--------5---------------------------
B|----8b-5--8--5--5---7--5-5-------7-------5--
G|--------------------7--5h6-------7-------5--
D|--------------------------------------------
A|----0--0--0--0--0---0--0-0-0--0--0----0--0--
E|--------------------------------------------

Riff A:
Shoot...    Shoot...
E|---------------------
B|------3-----------3--
G|------2-----------2--
D|------0-----------0--
A|---------------------
E|---------------------

Angus Young Guitar Solo:
Shoot...    Shoot...
E|-------------------------------------------
B|--10~-10~--------10~-10~--------------10~--
G|-------------------------------10/12-------
D|-------------------------------------------
A|-------------------------------------------
E|--------------------------12\--------------

E|-------------12~-12~--------
B|--10~--10~------------10b~--
G|----------------------------
D|----------------------------
A|----------------------------
E|----------------------------

E|---------------------------------------------
B|--10~------8~--8~--10~------------8~----10~--
G|-------------------------------------9~------
D|------------------------7~----7~-------------
A|---------------------------9-----------------
E|------12\------------------------------------

E|----------------------------------
B|--8~----10~--10b~--8~----10~--12~-
G|-----9~---------------9~----------
D|----------------------------------
A|----------------------------------
E|----------------------------------

E|--------------------------------------------------
B|--10~-10--8--10---10--8-----10~--10~--------------
G|-------------------------9------------7/9---------
D|----------------------------------------------7~--
A|-------------------------------------------9------
E|--------------------------------------------------

E|------------------------------
B|--5/7-----7/9-----10hb~--8----
G|----------------------------9-
D|-------7-------7--------------
A|------------------------------
E|------------------------------

E|-----------8--8--7--5~-------------------

B|--10b-------------------10--8--10~--10~--
G|-----------------------------------------
D|-----------------------------------------
A|-----------------------------------------
E|-----------------------------------------

E|--5--5--5--5--5--5--5/--17--17--17\--
B|--5--5--5--5--5--5--5/--17--17--17\--
G|-------------------------------------
D|-------------------------------------
A|-------------------------------------
E|-------------------------------------

E|-----5--5--5\----3/5---5-----3--5---5--5--5--5--5--------------------
B|--5--5--5--5\----3/5------5---------5--5--5--5--5---5--3--5---1--1~--
G|---------------------------------------------------------------------
D|---------------------------------------------------------------------
A|---------------------------------------------------------------------
E|---------------------------------------------------------------------
Riff B:
   Shoot!    Shoot!
E|---------------------
B|---------------------
G|---------------------
D|---------------------
A|---------------------
E|-----12\-------12\---


Important: The song above is NOT stored on the Chordie server. The original song is hosted at www.xguitar.com. Chordie works as a search engine and provides on-the-fly formatting. Chordie does not index songs against artists/composers will. To remove this song please click here.

This song is displayed as text-only. Transposing and tuning is only available for chordpro-songs.

Login - add to songbook

Rating click stars to rate

Layout
Accuracy

SHARE PAGE  



You need to log in to post comments