Chordie logo


Are You Ready   Ac/Dc


e|-----0--------0--------0----------0----------0-----------|


b|-------3--------3--------3----------3----------3---------|


g|---2--------2--------2----------2----------2-------------|


D|-0--------0----------------------------------------------|


A|-------------------3----------3----------2---------------|


E|---------------------------------------------------------|


e|-----0-----------0----------0--------0----------0--------|


b|-------3-----------3----------3---------3----------3-----|


g|----2-----------2----------2---------2----------2--------|


D|-0-------------------------------------------------------|


A|---------------------------------------------------------|


E|-----------2----------2----------3----------3------------|


e|-0----------------0----------------------0------------------|


b|-3----------------3----------------------3------------------|


g|-2----------------2----------------------0---------------1--|


D|-0----------------0----------------------0---------------3--|


A|------------------0----------------------2---------------3--|


E|------------------2----------------------3---------------1--|


e|------------------------------------|


b|-3--3--3---1--1--1------------------|


g|-2--2--2---2--2--2--------5---------|


D|-0--0--0---0--0--0---3----5----5----|


A|-----------3--3--3---3----3----5----|


E|---------------------1---------3----|


e|-0---------------------------------------0------------------|


b|-3---------------------------------------3------------------|


g|-2----------------2----------------------0---------------1--|


D|-0----------------0----------------------0---------------3--|


A|------------------0----------------------2---------------3--|


E|------------------2----------------------3---------------1--|


e|-----0--------0--------0----------0----------0-----------


b|-------3--------3--------3----------3----------3---------


g|---2--------2--------2----------2----------2-------------


D|-0--------0----------------------------------------------


A|-------------------3----------3----------2---------------


E|---------------------------------------------------------


e|-----0--------0--------0----------0----------0-----------


b|-------3--------3--------3----------3----------3---------


g|---2--------2--------2----------2----------2-------------


D|-0--------0----------------------------------------------


A|-------------------3----------3----------2---------------


E|---------------------------------------------------------


e|-----0-----------0----------0--------0----------0--------|


b|-------3-----------3----------3---------3----------3-----|


g|----2-----------2----------2---------2----------2--------|


D|-0-------------------------------------------------------|


A|---------------------------------------------------------|


E|-----------2----------2----------3----------3------------|


e|-------------------------------------------------------|


b|-------------------------------------------------------|


g|-2-2-2------2------------------------------------------|


D|-0-0-0--2-2-0---2-2-2--0-0-2--0-0-0-0-0--2-2-2-0-0-2---|


A|--------3-3-----3-3-3--2-2-3--2-2-2-0-0--3-3-3-2-2-3---|


E|-------------------------------------------------------|


e|-10^^^---------------------------------------------|


b|-10^^^-12^^-12^^10^^-------------------------------|


g|-------12^^-12^^10^^--12-bend 1/2 step--12/ slide--|


A|---------------------------------------------------|


E|---------------------------------------------------|


e|-----------------------------|--------------------------------------|


b|-13-B-13-R/B---13-10---------|--------------------------------------|


g|---------------------12-10---|------0-0-H-1-------------------------|


D|---------------------------12|--0-3-----------5-B-3---------3-3-1-\-|


A|-----------------------------|------------------------5-3-5---------|


E|-0*--------------------------|--------------------------------------|


e|---------------------------------------|--10---10---------------


b|-12-B-10--12--12-B-10--12--12-B-10--12-|-----10---13---13-13----


g|-12-B-10--12--12-B-10--12--12-B-10--12-|------------------------


D|---------------------------------------|------------------------


A|---------------------------------------|------------------------


E|---------------------------------------|------------------------


e|----------------------------------10-----------------------|


b|-12--12--12--12--12--12-----10-13----13----10--------------|


g|-------------------------12----------------12----10--------|


D|------------------------------------------------------12---|


A|-----------------------------------------------------------|


E|-----------------------------------------------------------|


e|-13--13--10----10---------------------------------------|


b|------------13-----13-10----13---10---------------------|


g|-------------------------12-----------------------------|


D|--------------------------------------12--10--12-10-10\-|


A|--------------------------------------------------------|


E|-0------------------------------------------------------|


e|------------|-----------------------------|-------------------------|


b|------------|-----------------------------|-------------------------|


g|---10----10-|-10--------------------------|-------------------------|


D|-12---12----|----12--10-------------------|-----------------10-12-12|


A|------------|------------12-\-11-\10-\8-B-|---------10-12-12--------|


E|------------|-----------------------------|-10-12-12----------------|


e|----------------------------|


b|----------------------------|


g|-------------12-B---10-12---|


D|-10-12-12-10----------------|


A|----------------------------|


E|----------------------------|


       - - - AC/DC Italian Home Page - - -


Important: The song above is NOT stored on the Chordie server. The original song is hosted at www.xguitar.com. Chordie works as a search engine and provides on-the-fly formatting. Chordie does not index songs against artists/composers will. To remove this song please click here.

This song is displayed as text-only. Transposing and tuning is only available for chordpro-songs.

Login - add to songbook

Rating click stars to rate

Layout
Accuracy

SHARE PAGE  




You need to log in to post comments