Chordie logo

Son of a Bitch    Accept



Title - Son of a Bitch
Artist - Accept

Tempo = 130
Intro:

e |-----|---------------------|------------------------|----------------|----------------|
b |-----|---------------------|------------------------|------3---------|------333-------|
g |-----|---------------------|------------------------|------2---------|------222-------|
d |-----|----3-232323232323232|323232323232323232323232|----3-0---------|------000-------|
a |-----|--1------------------|------------------------|--1-------------|----------------|
E |-10\-|3--------------------|------------------------|3---------------|----------------|

e |---------------------|------------------------|----------------|----------------|
b |---------------------|------------------------|------3---------|------333-------|
g |---------------------|------------------------|------2---------|------222-------|
d |----3-232323232323232|323232323232323232323232|----3-0---------|------000-------|
a |--1------------------|------------------------|--1-------------|----------------|
E |3--------------------|------------------------|3---------------|----------------|

Verse 1:

e |----------------|----------------|----------------|----------------|
b |----------------|----------------|----------------|----------------|
g |----------------|----------------|----------------|----------------|
d |----------------|----------3---3-|5-------------5-|----------------|
a |1-1-1-1-1-1-1-1-|1-1-1-1-1-1-1-1-|3-3-3-3-3-3-3-3-|3-3-3-3-3-3-3-3-|
E |----------------|----------------|----------------|----------------|

e |---------------------|------------------------|----------------|----------------|
b |---------------------|------------------------|------3---------|------333-------|
g |---------------------|------------------------|------2---------|------222-------|
d |----3-232323232323232|323232323232323232323232|----3-0---------|------000-------|
a |--1------------------|------------------------|--1-------------|----------------|
E |3--------------------|------------------------|3---------------|----------------|

e |----------------|----------------|----------------|----------------|
b |----------------|----------------|----------------|----------------|
g |----------------|----------------|----------------|----------------|
d |----------------|----------3---3-|5-------------5-|----------------|
a |1-1-1-1-1-1-1-1-|1-1-1-1-1-1-1-1-|3-3-3-3-3-3-3-3-|3-3-3-3-3-3-3-3-|
E |----------------|----------------|----------------|----------------|

e |---------------------|------------------------|----------------|----------------|
b |---------------------|------------------------|------3---------|------333-------|
g |---------------------|------------------------|------2---------|------222-------|
d |----3-232323232323232|323232323232323232323232|----3-0---------|------000-------|
a |--1------------------|------------------------|--1-------------|----------------|
E |3--------------------|------------------------|3---------------|----------------|

Break:

e |----------------|----------------|----------------|----------------|
b |----------------|----------------|----------------|----------------|
g |8-----7---------|8-----7---------|----------------|----------------|
d |8-----7---------|8-----7---------|9-9-9-9-9-9-9-9-|9-9-9-9-9-9-9-9-|
a |6-----5---5-5-5-|6-----5---5-5-5-|7-7-7-7-7-7-7-7-|7-7-7-7-7-7-7-7-|
E |----------------|----------------|----------------|----------------|

Verse 2:

e |----------------|----------------|----------------|----------------|
b |----------------|----------------|----------------|----------------|
g |----------------|----------------|----------------|----------------|
d |----------------|----------3---3-|5-------------5-|----------------|
a |1-1-1-1-1-1-1-1-|1-1-1-1-1-1-1-1-|3-3-3-3-3-3-3-3-|3-3-3-3-3-3-3-3-|
E |----------------|----------------|----------------|----------------|

e |---------------------|------------------------|----------------|----------------|
b |---------------------|------------------------|------3---------|------333-------|
g |---------------------|------------------------|------2---------|------222-------|
d |----3-232323232323232|323232323232323232323232|----3-0---------|------000-------|
a |--1------------------|------------------------|--1-------------|----------------|
E |3--------------------|------------------------|3---------------|----------------|

e |----------------|----------------|----------------|----------------|
b |----------------|----------------|----------------|----------------|
g |----------------|----------------|----------------|----------------|
d |----------------|----------3---3-|5-------------5-|----------------|
a |1-1-1-1-1-1-1-1-|1-1-1-1-1-1-1-1-|3-3-3-3-3-3-3-3-|3-3-3-3-3-3-3-3-|
E |----------------|----------------|----------------|----------------|

e |---------------------|------------------------|----------------|----------------|
b |---------------------|------------------------|------3---------|------333-------|
g |---------------------|------------------------|------2---------|------222-------|
d |----3-232323232323232|323232323232323232323232|----3-0---------|------000-------|
a |--1------------------|------------------------|--1-------------|----------------|
E |3--------------------|------------------------|3---------------|----------------|

Break:

e |----------------|----------------|----------------|-----------------|
b |----------------|----------------|----------------|-----------------|
g |8-----7---------|8-----7---------|----------------|-----------------|
d |8-----7---------|8-----7---------|9-9-9-9-9-9-9-9-|9-9-9-9-9-9------|
a |6-----5---5-5-5-|6-----5---5-5-5-|7-7-7-7-7-7-7-7-|7-7-7-7-7-7-10---|
E |----------------|----------------|----------------|------------8----|

Chorus:

e |----------------|----------------|----------------|-------------------|
b |----------------|----------------|----------------|--------10---------|
g |----------------|----------------|----------------|--------12b~-------|
d |7-----7-----7---|7-----7-----7---|3---------------|7-8-7--------------|
a |7-----7-----7---|7-----7-----7---|3---------------|5-6-5-0------------|
E |5-5-5-5-5-5-5-5-|5-5-5-5-5-5-5---|1---------------|-------------------|


e |----------------|----------------|----------------|-------------------|
b |----------------|----------------|----------------|--------10---------|
g |----------------|----------------|----------------|--------12b~-------|
d |7-----7-----7---|7-----7-----7---|3---------------|7-8-7--------------|
a |7-----7-----7---|7-----7-----7---|3---------------|5-6-5-0------------|
E |5-5-5-5-5-5-5-5-|5-5-5-5-5-5-5---|1---------------|-------------------|

Harmony Part:

   Guitar 1
e |15-14-12----------------|------------------------|
b |---------12-------------|12----------------------|
g |------------12-11-12-14-|---14-12-11-12----------|
d |------------------------|---------------14-------|
a |------------------------|------------------13----|
E |------------------------|---------------------15-|
  |
  |Guitar 2
e |------------------------|------------------------|
b |------------------------|------------------------|
g |------------------------|------------------------|
d |------------2--1--2--4--|5--4--2--1--2-----------|
a |---------2--------------|---------------3--2--1--|
E |0--2--3-----------------|------------------------|


   Guitar 1
e |15-14-12-11-12----------|------------------------|
b |---------------12-15-12-|------------------------|
g |------------------------|12~---------11~---------|
d |------------------------|------------------------|
a |------------------------|------------------------|
E |------------------------|------------------------|
  |
  |Guitar 2
e |------------------------|------------------------|
b |------------------------|------------3-----------|
g |------------------------|------------2-----------|
d |------------------------|------------0-----------|
a |2--5--3--2--------------|------------------------|


Important: The song above is NOT stored on the Chordie server. The original song is hosted at www.xguitar.com. Chordie works as a search engine and provides on-the-fly formatting. Chordie does not index songs against artists/composers will. To remove this song please click here.

This song is displayed as text-only. Transposing and tuning is only available for chordpro-songs.

Login - add to songbook

Rating click stars to rate

Layout
Accuracy

SHARE PAGE  

You need to log in to post comments