Guitar Tabs, Chords and Lyrics


Trust    Adema



Band: adema
 song: trust
 Album: adema
 Tabbed by: jeremy hernalsteen
 Email: jrmy685@musician.net
 Tuning: standard tuning


INTRO
Heavy distortion and some kind of effect
-------------------------------------------------------
-------------------------------------------------------
------------12--12-12-12--8--8-8-7---------------------
-10-10--10--12--12-12-12--8--8-8-7-8-8--8-8-8--8-8-8-8-
-10-10--10--10--10-10-10--6--6-6-5-8-8--8-8-8--8-8-8-8-
--8--8---8-------------------------6-6--6-6-6--6-6-6-6-

cont\'
--------------------------------------------------------------------
--------------------------------------------------------------------
-------------------------10-10-12-13-12--12-12-12-12--13------------
-10--10-10-10--8--8-8-8--10-10-12-13-12--12-12-12-12--13-8--8-8-8-8-
-10--10-10-10--8--8-8-8---8--8-10-11-10--10-10-10-10--11-8--8-8-8-8-
--8---8--8--8--6--6-6-6----------------------------------6--6-6-6-6-


VERSE
Clean and quiet.
-------6-6-1-1-3~---------6-6-1-1-3--11-10-
-------------------------------------------
-(3)/5--------------(3)/5------------------
-------------------------------------------
-------------------------------------------
-------------------------------------------


CHORUS
Very little distortion.
---------------------------------------------------------------------
---------------------------------------------------------------------
-9-9--9-9--9-9--9-9--9-9--8-8/10-10--10-10--10-10--10-10--10-10--7-7/
-x-x--x-x--x-x--x-x--x-x--x-x--x--x---x--x---x--x---x--x---x--x--x-x-
-7-7--7-7--7-7--7-7--7-7--6-6/-8--8---8--8---8--8---8--8---8--8--5-5/
---------------------------------------------------------------------

cont\'
-------------------------
-------------------------
-8-8--8-8--8-8--8-8--8-8-
-x-x--x-x--x-x--x-x--x-x-
-6-6--6-6--6-6--6-6--6-6-
-------------------------

cont\'
-------------------------------------------------
-------------------------------------------------
-13-13-13-13-12-12-12-12-13-13-13-13-16-16-16-16-
--x--x--x--x--x--x--x--x--x--x--x--x--x--x--x--x-
-11-11-11-11-10-10-10-10-11-11-11-11-14-14-14-14-
-------------------------------------------------


OUTRO
Starts with same distortion as chorus, but by last time through, it is 
completly clean.
-----------------------------------------------------------
-----------------------------------------------------------
-9--9-9-9--9-9--9-9--9-9-9-9--8--8-8-8--8--9--9-9--9-9-9-9-
-x--x-x-x--x-x--x-x--x-x-x-x--x--x-x-x--x--x--x-x--x-x-x-x-
-7--7-7-7--7-7--7-7--7-7-7-7--6--6-6-6--6--8--8-8--8-8-8-8-


Important: The song above is NOT stored on the Chordie server. The original song is hosted at www.xguitar.com. Chordie works as a search engine and provides on-the-fly formatting. Chordie does not index songs against artists/composers will. To remove this song please click here.

This song is displayed as text-only. Transposing and tuning is only available for chordpro-songs.

Login - add to songbook

Rating click stars to rate

Layout
Accuracy

Jango Player

SHARE PAGE  




You need to log in to post comments