Guitar Tabs, Chords and Lyrics


Half-Empty Bottle    Afi



-------------------------------------------------------------------------------
			             HALF EMPTY BOTTLE - A.F.I.
-------------------------------------------------------------------------------

By:Rudy De Stefano/Punker1028@aol.com

Intro: 0:03 (2x)
e|-----------------------------------|
B|-----------------------------------|
G|--99999--77777--1010101010---------|
D|--99999--77777--1010101010--99999--|
A|--99999--55555-- 8 8 8 8 8--99999--|
E|--77777---------------------77777--|

Verse: 0:09 (4x)
e|------------------------------|
B|------------------------------|
G|------------------------------|
D|--7/9999--7/9999\2/5\44444\7--|
A|--7/9999--7/9999\2/5\44444\7--|
E|--5/7777--5/7777\0/3\22222\5--|

Chorus: 0:22 (4x)
e|--------------------------------|
B|--------------------------------|
G|----------------77777--99/10\9--|
D|--99999--99999--77777--99/10\9--|
A|--99999--99999--55555--77/-8\7--|
E|--77777--77777------------------|

Verse: 0:35 (4x)

Chorus: 0:48 (4x)

Solo: 1:01	  x4              x4
e|---------------------------------------------------------|
B|---------------------------------------------------------|
G|---------------------------------------------------------|
D|--7--9-9-------------------------------------------------|
A|----------------7--10-10---------------------------------|
E|---------------------------------------------------------|

e|---------------------------------------------------------|
B|---------------------------------------------------------|
G|-------------------------------------------------10-9-7--|
D|--9--7----------------7-9--7-----7-7--9-7-7-9-9----------|
A|--------10--7-7----10--------10--------------------------|
E|---------------------------------------------------------|
 

Played Under Solo: 1:01 (2x)
e|--------------------------------------------------|
B|--------------------------------------------------|
G|--------------------------------------------------|
D|--7/99--7/99--7/99--7/99--2/55--2/55--2/55--2/55--|
A|--7/99--7/99--7/99--7/99--2/55--2/55--2/55--2/55--|
E|--5/77--5/77--5/77--5/77--0/33--0/33--0/33--0/33--|

Verse: 1:15  (4x)

Pause: 1:28

Intro: 1:35 (1x) Play last chord just once and slide out

(That's it...if you have the solo e-mail me!)



Important: The song above is NOT stored on the Chordie server. The original song is hosted at www.xguitar.com. Chordie works as a search engine and provides on-the-fly formatting. Chordie does not index songs against artists'/composers' will. To remove this song please click here.

This song is displayed as text-only. Transposing and tuning is only available for chordpro-songs.

Login - add to songbook

Rating click stars to rate

Layout
Accuracy

SHARE PAGE  




You need to log in to post comments