I Wanna Get a Mowhawk (But Mom Won't Let...

Afi

 2-B3-G4-D5-A6-E
                                                                                                                                                                                       Intro
   1|-----------------------------------------------
   2|-----------------------------------------------
   3|--7--10----7--10----7--10----7-----------------
   4|--7--10-10-7--10-10-7--10-10-7-----------------
   5|--5--8--10-5--8--10-5--8--10-5-----------------
   6|--------8--------8--------8-------------------- 

PM
Verse
   1|-----------------------------------------------
   2|-----------------------------------------------
   3|--7-777777-7-777777----------------------------
   4|--7-777777-7-7777778-8888885-55----------------
   5|--5-555555-5-5555558-8888885-55101010----------
   6|-------------------6-6666663-338-8-8----------- 

PM
Chorus
   1|-----------------------------------------------
   2|-----------------------------------------------
   3|--7-10-9-5-7-10-9-5-7-10-9-5-7-777777-10-9-5---
   4|--7-10-9-5-7-10-9-5-7-10-9-5-7-777777-10-9-5---
   5|--5-8--7-3-5-8--7-3-5-8--7-3-5-555555-8--7-3---
   6|----------------------------------------------- 

PM
Bridge
   1|-----------------------------------------------
   2|-----------------------------------------------
   3|--7-777777-10-9-5-7-777777---------------------
   4|--7-777777-10-9-5-7-777777-8-10----------------
   5|--5-555555-8--7-3-5-555555-8-10----------------
   6|---------------------------6-8-----------------

PM ^^^^^^ ^^^^^^





























A B D E G
variations - click chord images
Transpose chords:
Tuning:
Cool service:
View: Size:
A  A  A
Rating:
Layout:
  • Currently 2.7/5 Stars.
  • 1
  • 2
  • 3
  • 4
  • 5
 
Accuracy:
  • Currently 2.8/5 Stars.
  • 1
  • 2
  • 3
  • 4
  • 5
 
click stars to rate
Chordie recommends:
Get acoustic guitar lessons and electric guitar lessons at JamPlay.com
Songbook:
Login to add this song to your songbook
Support the artist
Preview/buy this song
MSN Music
Why this non-profit ad?

 
login to add comments/video/corrections