Guitar Tabs, Chords and Lyrics


A Story at Three    Afi



-------------------------------------------------------------------------------
                               STORY AT THREE - AFI
-------------------------------------------------------------------------------

By: tylamb@mediaone.net * = how many times you strum it

(intro)
e|---------------------------------------------------------------------------|
B|---------------------------------------------------------------------------|
G|-13-------------15---------12-------7-----11------12-----9-----------------|
D|---------------------------------------------------------------------------|
A|-11-------------13---------10-------5------9------10-----7-----------------|
E|--0--------------0----------0-------0------0-------0-----------------------|
   |7 *|         |2 *|      |8 *|    |4 *|  |1 *|  |1 *|  |10 *|

(verse) agian and agian they blend into one......
e|---------------------------------------------------------------------------|
B|---------------------------------------------------------------------------|
G|---------------------------------------------------------------------------|
D|----------7-------5-------------7--------------------7-------5-------------|
A|---2------5-------3------5------5------9-----2-------5-------3-------------|
E|---0------5-------3------3------5------7-----0-------5-------3-------------|
    |4 *|  |4 *|   |4 *|  |4 *|  |12 *| |4*|  |4 *|   |4 *|   |4 *|

e|---------------------------------------------------------------------------|
B|---------------------------------------------------------------------------|
G|-----------------8------11-------12----------------------------------------|
D|---------7------------------------------------------------5--------7-------|
A|--5------5-------6-------9-------10--------2-------5------3--------5-------|
E|--3------5---------------------------------0-------3-----------------------|
   |4 *|  |8 *|   |4 *|   |4 *|   |16 *|    |12 *|  |1 *|  |1 *|   |1 *|

(Chorus) we are the wakeful wry watchful......
e|---------------------------------------------------------------------------|
B|---------------------------------------------------------------------------|
G|---------------------------------------------------------------------------|
D|--2------------------------------------------------------------------------|
A|--0-------3-------5-------3-------5----------------------------------------|
E|----------1-------3-------1-------3----------------------------------------|
   |8 *|    8 *|   |8 *|   |4 *|   |4 *|

(end of chorus)
e|-----------3---------------------------------------------------------------|
B|-----------3---------------------------------------------------------------|
G|-----------0---------------------------------------------------------------|
D|--2--------0---------------------------------------------------------------|
A|--0------------------------------------------------------------------------|
E|-----------3---------------------------------------------------------------|
   |12 *|   |3 *|

(after the slow part around 2:40)
e|---------------------------------------------------------------------------|
B|---------------------------------------------------------------------------|
G|---------------------------------------------------------------------------|
D|----------7--------2-------------5-------5---------------------------------|
A|---5------5--------0-------3-----3-------2---------------------------------|
E|---3-----------------------1-----------------------------------------------|
   |2 *|   |2 *|    |4 *|   |1 *|  |1 *|   |4 *|



Important: The song above is NOT stored on the Chordie server. The original song is hosted at www.xguitar.com. Chordie works as a search engine and provides on-the-fly formatting. Chordie does not index songs against artists'/composers' will. To remove this song please click here.

This song is displayed as text-only. Transposing and tuning is only available for chordpro-songs.

Login - add to songbook

Rating click stars to rate

Layout
Accuracy

SHARE PAGE  




You need to log in to post comments