Guitar Tabs, Chords and Lyrics


The Lost Souls    Afi



Tabbed by: BROOX

Listen to the rhythm and speed and youll get it
Intro:
e------------------------------------------------------------------------
B------------------------------------------------------------------------
G------------------------------------------------------------------12\\---
D------------7------9-------------7----5-------------7------9---7--12\\---
A--7--10--9-----10------7--10--9-------5---7--10--9-----10------7--10\\---
E--------------------------------------3------------------------5--10\\---
                                      pm..                     pm..

Verse:                           
e------------------------           
B------------------------
G--7---10--5--7----------
D--7---10--5--7--8---7---		          D--11-|
A--5---8---3--5--8---7---		          A--11-|
E--5---8---3--5--6---5--- x4   then  E--9--|

Chorus:
e-------------------------------------------------------------|-------------
B-------------------------------------------------------------|-------------
G--7---5-------------10----7---5-----7---5-------------10--12-|-7--10-12--14
D--7---5---5--7--8---10----7---5-----7---5---5--7--8---10--12-|-------------
A--5---3---5--7--8---8-----5---3-----5---3---5--7--8---8---10-|-5--8--10--12
E--5---3---3--5--6---8-----5---3-----5---3---3--5--6---8---10-|-------------

Verse x2  

Chorus   ending with:e--|---------------------------
                     B--|---------------------------
                     G--|--7----------------/14-----
                     D--|---------------------------
                     A--|--5----------------/12-----
                     E--|---------------------------

Solo:
e---------------------13--13--12--12-12h13-13-13-13--------------10-12
B----------10--11--13---10--10---------------------13-10-13p10-11-----
G-9--10--12-----------------------------------------------------------
D---------------------------------------------------------------------
A---------------------------------------------------------------------
E---------------------------------------------------------------------
  
e--13--13--12--12-12h13-13-13-13--------------10-12-13-----------12-13
B----10--10---------------------13-10-13p10-11-------------------10-10
G---------------------------------------------------------------------
D---------------------------------------------------------------------
A---------------------------------------------------------------------
E---------------------------------------------------------------------

1st half of breakdown
e---------------------------------------
B---------------------------------------
G--7--7--9--9--10-10-12--12---7---8-----
D-----------------------------7---8-----
A--5--5--7--7--8--8--10--10---5---6-----
E---------------------------------------   X2

2nd half of breakdown
e----------------------------------------------
B----------------------------------------------
G--7-7-7-7-7-7-7-7--7--7/--14-14-14-14-14-14---
D----------------------------------------------
A--5-5-5-5-5-5-5-5--5--5/--12-12-12-12-12-12---
E----------------------------------------------

Chorus X2

Outro
e---------------------------------------------------------------------
B---------------------------------------------------------------------
G--9--9--9--9--9--9--9--9--9--9-9--9--9--9--9-9--9--5-5-5-5-5-5-5-5-5-
D---------------------------------------------------------------------
A--7--7--7--7--7--7--7--7--7--7-7--7--7--7--7-7--7--3-3-3-3-3-3-3-3-3-


Important: The song above is NOT stored on the Chordie server. The original song is hosted at www.xguitar.com. Chordie works as a search engine and provides on-the-fly formatting. Chordie does not index songs against artists/composers will. To remove this song please click here.

This song is displayed as text-only. Transposing and tuning is only available for chordpro-songs.

Login - add to songbook

Rating click stars to rate

Layout
Accuracy

SHARE PAGE  




You need to log in to post comments