Chordie logo

Narrative of Soul Against Soul    Afi



-------------------------------------------------------------------------------
                        NARRATIVE OF SOUL AGAINST SOUL - AFI
-------------------------------------------------------------------------------

by: heroin bob

  intro and chorus:
e|-------------------------------------------|
B|-------------------------------------------|
G|-----------7---5---------------------------|
D|---2---5---7---5---5---7-------x2----2-----|
A|---2---5---5---3---5---7-------------2-----|
E|---0---3-----------3---5-------------0-----|

  verse:
e|-------------------------------------------|
B|-------------------------------------------|
G|---4------------4---7----------------------|
D|---4---5---7----4---7---7------------------|
A|---2---5---7----2---5---7------------------|
E|-------3---5------------5------------------|

solo:
e|--0-0-0-0-0-0----7-8-7-----------------------------------------------------|
B|--5-7-8-5-7-8----8-8-8--8-10-8---------------------------------------------|
G|------------------------7-7--7---------------------------------------------|
D|---------------------------------------------------------------------------|
A|---------------------------------------------------------------------------|
E|---------------------------------------------------------------------------|

e|--0-0-0-0-0-0----7-10-8----------------------------------------------------|
B|--5-7-8-5-7-8----8-8--8--8-10-8--------------------------------------------|
G|-------------------------7-7--7--------------------------------------------|
D|---------------------------------------------------------------------------|
A|---------------------------------------------------------------------------|
E|---------------------------------------------------------------------------|



Important: The song above is NOT stored on the Chordie server. The original song is hosted at www.xguitar.com. Chordie works as a search engine and provides on-the-fly formatting. Chordie does not index songs against artists/composers will. To remove this song please click here.

This song is displayed as text-only. Transposing and tuning is only available for chordpro-songs.

Login - add to songbook

Rating click stars to rate

Layout
Accuracy

SHARE PAGE  



You need to log in to post comments