Chordie logo

No Poetic Device    Afi



-------------------------------------------------------------------------------
			                NO POETIC DEVICE - AFI
-------------------------------------------------------------------------------

    = Artificial Harmonic /= Slide Down (----)=Palm Mute #= Pick Slide
                              \= Slide Up
Intro

|----------------------------------------->
|----------------------------------------->
|----------------------------------------->
|------------------9---10-9--99--9-10-11-->
|------------------9---10-9--99--9-10-11-->
|77-777-777-777-7--7---8--7/\77--7-8--9/-->

Verse 1
|----------------------->
|----------------------->
|---------77-7---------->
|2-2-55-5-77-777-7------> X4   *At the end of the second time
|2-2-55-5-55-577-7------>       Slide Down(/) and play two more
|0-0-33-3-----55-5(/*)-->       Times.

Verse 2           Cont...
|----------->     |----------->
|----------->     |----------->
|(--)------->     |-(-)--(-)-->
|22224\5-5--> X3  |4444-3333--> X1
|22224\5-5-->     |4444-3333-->
|00002\3-3-->     |2222-1111-->

Play Verse 2(No Cont...) and No Palm Muting[ (---) ]. Then,

Cont... Part 2
|---------------------------------->
|---------------------------------->
|--(-)---(-)----------------------->
|4-5-7-4-5-7-99-10-9--99--9-10-11--> X1
|4-5-7-4-5-7-99-10-9--99--9-10-11-->
|2-3-5-2-3-5-77-8--7/\77--7-8--9/-->

Play Verse 1 again.

Play Verse 2 with No Palm Muting.

Play Cont... again with No Palm Muting.

Play Verse 2 again with no Palm Muting.

Play Cont... Part 2. When you slide down, Hit an open "G" at the end and 
Hold.

Special                        ##########              ########
|--12---------------12----->    |-------------------------------->
|-----12---12-12-------12-->    |-------------------------------->
|-------------------------->    |-------------------------------->
|--------------------------> X1 |--------------------------------> X1
|-------------------------->    |-------------------------------->
|-------------------------->    |----------00--00--00--00-------->

Play Verse 1 again. End with open "G" while Guitar 2 in the background 
plays:

Ending Riff
|--------------------------->
|--------------------------->
|9999-7777------------------>
|9999-7777-8888--10-9-10-9--> X6
|7777-5555-8888--10-9-10-9-->
|----------6666--8-/7-8-/7-->

Tabbed by: Ricky Riot (9/20/00).

Ricky Riot: Guitarist for Uphieval. RickyRiot@Hotmail.com
            I can Tab any AFI song. Send me your requests.

Music Copyright(C) 1999. Ex Noctem Nacemur Music. BMI



Important: The song above is NOT stored on the Chordie server. The original song is hosted at www.xguitar.com. Chordie works as a search engine and provides on-the-fly formatting. Chordie does not index songs against artists/composers will. To remove this song please click here.

This song is displayed as text-only. Transposing and tuning is only available for chordpro-songs.

Login - add to songbook

Rating click stars to rate

Layout
Accuracy

SHARE PAGE  

You need to log in to post comments