All Out Of Love

Air Supply

E|--------0-----------3-----------1---------------------

B|----------1-----------3-----------1---------1-------3-
G|------0-----0-----4-----4-----2-----2-----2-------4---
D|----2-----------5-----------3-----------3-------5-----
A|--3-----------5-----------3---------------------------
E|--------------------------------------1-------3-------
E|--------0-----------3-----------1---------------------
B|----------1-----------3-----------1---------1-------3-
G|------0-----0-----4-----4-----2-----2-----2-------4---
D|----2-----------5-----------3-----------3-------5-----
A|--3-----------5-----------3---------------------------
E|--------------------------------------1-------3-------
E|--------0-------------0-----
B|----------1-------------1---
G|------0-----0-------0-----0-
D|----2-------------2---------
A|--3-------------3-----------
E|----------------------------

 FC
I'm lying alone with my head on the phone,
 FC
thinking of you 'til it hurts
 FG
I know you hurt too, but what else can we do,
 FF/EC
tormented and torn apart.

 FC
I wish I could carry your smile in my heart,
 FC
For times when my life seems so low.
 FG
It would make me believe what tomorrow could bring,
 FCG
When today doesn't really know, Doesn't really know.

(Chorus)
 CG
I'm all out of love, I'm so lost with you,
 FG
I know you were right, believing for so long.
 CG
I'm all out of love, what am I without you,
 FGC
I can't be to late to say that I was so wrong.

 FC
I want you to come back and carry me home,
 FC
Away from these long, lonely nights.
 FG
I'm reaching for you. Are you feeling it too?
 FF/EC
Does the feeling seem oh, so right?

 FC
And what would you say if I called on you now,
 FC
And said that I can't hold on?
 FG
There's no easy way, it gets harder each day,
 FG
Please love me or I'll be gone.  I'll be gone.

(To Chorus:)

Bridge

E|----------------------------
B|----------------------------
G|------0-------0-------------
D|----2---2---0---------------
A|--3-------2-----------------
E|----------------------------


then strum C

C G F C, G, F } interlude. this is the 3 chords strum fast
Oooo....What are you thinking of
 C
What are you thinking of
 GF
What are you Thinking of
 CFCG
What are you Thinking of        

(Chorus)


C F F/E G
variations - click chord images
Transpose chords:
Tuning:
Cool service:
View: Size:
A  A  A
Rating:
Layout:
  • Currently 1/5 Stars.
  • 1
  • 2
  • 3
  • 4
  • 5
 
Accuracy:
  • Currently 0/5 Stars.
  • 1
  • 2
  • 3
  • 4
  • 5
 
click stars to rate
Chordie recommends:
Get acoustic guitar lessons and electric guitar lessons at JamPlay.com
Songbook:
Login to add this song to your songbook
Support the artist
Preview/buy this song
MSN Music
Why this non-profit ad?

 
login to add comments/video/corrections

oh boy (report comment to admin):
where are the minor chords Am Em in the mid section