Guitar Tabs, Chords and Lyrics


Designated Drinker   Alan Jackson

[G]INTR[Am]O    [C]    [D]    [G]    [D]


Here's my [G]keys, I want you to [Am]take 'em.
I think I'm gonna [C]need you to get back [D]home.
Hold on to my [G]hat, I don't wanna [Am]lose it.
I couldn't [C]stand for something else to be [D]gone.
[Am]I'm sure you know the reason [D]I'm here crying,
[Am]I think you'll understand [D]why.
To[G]night, I'm the designated [Am]drinker.
I just [C]lost the one that wrapped me round her [D]finger.
I need to [G]get to where I can't [Am]think of her,
So to[C]night, [D]I'm the designated [C]drin[G]ker.
[G]INST[Am]RUMEN[C]TAL [D]    [G]    [D]
I came [G]here to get you to [Am]help me,
I need a [C]friend to see me [D]through.
I hated to [G]call, I knew you wouldn't [Am]mind at all.
I know you [C]know I'd do the same for [D]you.
[Am]I'm not the kind that likes to [D]drown my sorrow,
[Am]I may hate myself to[D]morrow.
But [G]tonight, I'm the designated [Am]drinker.
I just [C]lost the one that wrapped me round her [D]finger.
I need to [G]get to where I can't [Am]think of her,
So to[C]night, [D]I'm the designated [C]drin[G]ker.
[G]INST[Am]RUMEN[C]TAL [D]
We need to [G]get to where we can't [Am]think of her,
So to[C]night, [D]we're the designated [C]drin[G]kers.
Woah, to[C]night [D]we're the designated [C]drin[G]kers.
[G]OUTR[Am]O    [C]    [D]    [G]
***********************************************************************
LEAD GUITAR PARTS
***********************************************************************

h = hammer-on / = slide up

\ = slide down pbr = pre-bend & release

p = pulloff br = bend & release

***********************************************************************


INTRO, 1ST INSTRUMENTAL & OUTRO


E------------------------------------------------------|
B------------------------------------------------------|
G---------------7-9--------7---------------------------|
D------5--7--7/9---7h9--7/9-9\7-5-5-5/7\5--------------|
A--5h7--5--5---------------------7-------5/7\5-3\2-0---|
E------------------------------------------------------|



LEAD RIFFS IN SECOND VERSE


E-------------------8--7\5-5------------------------------
B-------1-1/3------------------1/3\1----------------------
G-----0-2-2/4----7/9--7-\5-5-0-2/4\2-----------------5----
D--0h2---0------------------------------5-----------------
A----------------------------------------5pbr-3-5-5h7-----
E---------------------------------------------------------
E-------------------------------|
B-------------------------------|
G-----2-------------------------|
D--2/4-4p2p0-------0------------|
A-----------2p0-3/5-5-3-2br-0---|
E-------------------------------|


Important: The song above is NOT stored on the Chordie server. The original song is hosted at www.xguitar.com. Chordie works as a search engine and provides on-the-fly formatting. Chordie does not index songs against artists'/composers' will. To remove this song please click here.

Text color:
Chord color:
Chord grids: 
Font size:    
Page size: 

Am C D G
variations - click chord images

Login - add to songbook

Transpose chords

Tuning

Rating click stars to rate

Layout
Accuracy

SHARE PAGE  




You need to log in to post comments