Guitar Tabs, Chords and Lyrics


I'll Go on Loving You   Alan Jackson

E---------------------------------------------------------------------------------------------|


B-8-6-8-6-8-6-4-8-6-8-6-8-6-4-3-4-8-6-8-6-8-6-4-3-4--------------------8-6-4------------------|


G---------------------------------------------------------------------------------------------|

D--------------------------------------------------------------------------1-3-5--------------|
A-----------------------------------------------------------------1-3-5-----------------------|
E---------------------------------------------------------------------------------------------|
[Am]When I look into your [Fsus]soft green eyes
[Am]And when I see your [Fsus]delicate body
[Am]Revealed to me as you[Fsus] slip off your dre[G]ss
[Am]I'm reminded that what I[Fsus] feel for you
[Am]Will remain stron[Fsus]g and true
[Am]Long after the pleasu[Fsus]res of the flesh[G] and
Chorus:
[Am]I'll go on [Fsus]loving you

[Am]I'll go on l[Fsus]oving you

[Am]I'll go on lo[G]ving you
And be it the wind or the rain
Or the moon up in the sky
The spin of the earth
Or the changes in the tide
I don't know what brought us together
What strange forces of nature
Conspired to construct
The present from the past but

Chorus

When I look into your soft green eyes
And when I see your delicate body
Revealed to me as you slip off your dress
I'm reminded that what I feel for you
Will remain strong and true
Long after the pleasures of the flesh and

Chorus


This is how I like to play the chorus:
(Relative to capo being open) D= Downstroke U=Upstroke

D D U D U D U D
--0----0----0----0----0----0----0------------

--1----1----1----1----1----1----1------------
--2----2----0----2----0----2----0------------
--2----2----0----2----0----3----3---3--------
--0----0----0----0----0----------------------
---------------------------------------------


D D U D U D U D
--0----0----0----0----0----0----0---------3--

--1----1----1----1----1----1----1---------3--
--2----2----0----2----0----2----0---------0--
--2----2----0----2----0----3----3---3-----0--
--0----0----0----0----0-------------------2--
------------------------------------------3--

Important: The song above is NOT stored on the Chordie server. The original song is hosted at www.xguitar.com. Chordie works as a search engine and provides on-the-fly formatting. Chordie does not index songs against artists'/composers' will. To remove this song please click here.

Text color:
Chord color:
Chord grids: 
Font size:    
Page size: 

Am Fsus G
variations - click chord images

Login - add to songbook

Transpose chords

Tuning

Rating click stars to rate

Layout
Accuracy

SHARE PAGE  




You need to log in to post comments