Chordie logo


Adelleda    Alexisonfire



Adelleda- ALEXISONFIRE  All strings down half a step.
Eb--15p14-------------------------------------------------------------
Bb-----------------------------------------------10-------------------
Gb-------------------12p11-------------11h12p11---------11h12p11------
Db----------5~~~~----------9~~~---------------12----------------12—-5-
Ab----------5~~~~----------9~~~-------------------------------------5-
Eb----------3~~~~--------- 7~~~-------------------------------------3-

Eb------------------------------------------------------------------
Bb---0--------------------------------------------------------------
Gb-—12p11--------11h12p11----10---11h12p11--------------------------
Db----------9--------------12---------------12----------------------
Ab----------9-------------------------------------------------------
Eb----------7-------------------------------------------------------

Eb------------------------------------------------------------------
Bb------------------------------------------------------------------
Gb------------------------------------------------------------------
Db—444-555-777-555-444-555-777-555-444-555-777-555-444-555-777-555--
Ab------------------------------------------------------------------
Eb------------------------------------------------------------------
This riff is played over the first two bars...
Eb-----------------------------------------------------------------
Bb-----------------------------------------------------------------
Gb-----------------------------------------------------------------
Db--444-555-444-555-777-555-444-555-777-555-444-555-(last 2 bars x2)
Ab-----------------------------------------------------------------
Eb-----------------------------------------------------------------

Eb-----------------------------------------------------------------
Bb-----------------------------------------------------------------
Gb--------------11----- 11--11----9/-11--11111111------------------
Db---------------x-------x--x-----x/-x---x-x-x-x---x2--------------
Ab--then----7-5--9-------9—-9-----7/-9---9-9-9-9-------------------
Eb---------------0—-0-0--0—-0--0--0--------------------------------

Eb-----------------------------------------------------------------
Bb-----------------------------------------------------------------
Gb---4-----4~~-------4------2~~-11----11-–10/-11-11111111----------
Db---4-4-4-4~~-4--44-4--4-4-4~~-x-----x----x/-x--x-x-x-x---x2------
Ab---2-2-2-2~~-2--22-2--2-2-2~~-9-----9----8/-9--9-9-9-9-----------
Eb------------------------------0-0-0-0--0-0-----------------------
This is what’s played during the "verse"
Eb-----------------------------------------------------------------
Bb-------7-----------7----7-------------------------10p8-----------
Gb-----7---7---7---7---7----7---------------------------11p9-11p5--
Db---5-------5----5-----------play verse twice then--------------9~
Ab-----------------------------------------------------------------
Eb-----------------------------------------------------------------

Eb-----------------------------------------------------------------
Bb--------------7h8p7--10----8p7h8p7--------------8p7--------------
Gb-------------------7------------------9p7-9p7---------------(x2)-
Db--5-5-5---999-----------555-------222----7---555-----------------
Ab--5-5-5---999-----------555-------222--------555--------2~~------
Eb--3-3-3---777-----------333-------000--------333-----0-----------

Eb-----------------------------------------------------------------
Bb-----------------------------------------------------------------
Gb--------9/-11-12--14-12--11--12-14-12---77-7-77-7-77-7-77-7------
Db--2--5—-x/-x--x---x--x---x---x--x--x----xx-x-xx-x-xx-x-xx-x------
Ab—-2--5—-7/-9--10--12-10--9--10--12-10---55-5-55-5-55-5-55-5------
Eb--0--3-----------------------------------------------------------

Eb-----------------------------------------------------------------
Bb---------------------------------play top part-------------------
Gb-12-12--11-12--14--12-11--12------again-then..-16-16-14-16-14----
Db-x--x---x--x---x---x--x---x—(x2)----------------x-x--x--x--x-----
Ab—10-10--9--10--12-10--9--10--------------------14-4--12-14-12----
Eb-----------------------------------------------------------------

Eb-----------------------------------------------------------------
Bb-----------------11h12-12-12-12-12-12-12-11h12-11-11-11-11-11-11-
Gb--play---4-4-2-4-------------------------------------------------
Db--verse--4-4-2-4-------------------------------------------------
Ab--then..-2-2-0-2-------------------------------------------------
Eb-----------------------------------------------------------------

Eb-----------------------------------------------------------------
Bb-----------------------------------------------------------------
Gb-13-13-12-12-12-12—(for the next singing-14--part, just fool-----
Db--------------------around with -5--and---x----------------------
Ab---------------------------------5-------12----------------------
Eb---------------------------------3-------------------------------

Eb-----------------------------------------------------------------
Bb-----------------------------------------------------------------
Gb-----------------------------------------------------------------
Db-----------------------------------------------------------------
Ab—--------(some electronic noises...)-----------------------------
Eb----------------------------------------------------------------

Eb--15-16—15/13--11—15-16-15/13-11/13-11-/15-15-16-18-16-15-16-15~~
Bb-----------------------------------------------------------------
Gb-----------------------------------------------------------------
Db-----------------------------------------------------------------
Ab-----------------------------------------------------------------
Eb-----------------------------------------------------------------

Eb-----------------------------------------------------------------
Bb-----------------------------------------------------------------
Gb-----------------------------------------------------------------
Db-----------------------------------------------------------------
Ab------------------------------------------------------------------
Eb-----------------------------------------------------------------



Important: The song above is NOT stored on the Chordie server. The original song is hosted at www.xguitar.com. Chordie works as a search engine and provides on-the-fly formatting. Chordie does not index songs against artists/composers will. To remove this song please click here.

This song is displayed as text-only. Transposing and tuning is only available for chordpro-songs.

Login - add to songbook

Rating click stars to rate

Layout
Accuracy

SHARE PAGE  




You need to log in to post comments