Guitar Tabs, Chords and Lyrics


Little Girls Pointing and Laughing    Alexisonfire



/=slide up 
\=slide down 
h=hammer-on 


intro: 2x 
eb|--0--|--0--|--0--|--0--|--0--|--0--|--0--| 
Bb|--5--|--8--|--7--|--12-|--10-|--12-|--8--| 
Gb|--4--|--7--|--7--|--9--|--7--|--9--|--5--| 
Db|--3--|--5--|--4--|--9--|--7--|--9--|--5--| 
Ab|-----|-----|-----|-----|-----|-----|-----| 
Eb|-----|-----|-----|-----|-----|-----|-----| 

2x 
eb|---0---|---0---| 
Bb|---0---|---0---| 
Gb|---5---|---0---| 
Db|---5---|---2---| 
Ab|---3---|---2---| 
Eb|---0---|---0---| 

2x 
(4x) (4x) end of second bar 
eb|-------------------------||---------------------------------||------------| 
Bb|-------------------------||---------------------------------||------------| 
Gb|----------7h9------------||------------------11-------------||------------| 
Db|--------------7h9-7h9----||---------------------12-12-/-14--||--12h14-----| 
Ab|-------------------------||----------0h10h12----------------||--------12--| 
Eb|--8-8-8-8----------------||--0-0-0-0------------------------||------------| 

(4x) (4x harmonics on last 3 notes) 
eb|------------------||-----------------| 
Bb|----------8-10----||------------7-7--| 
Gb|---------------7--||----------5------| 
Db|------------------||-----------------| 
Ab|------------------||-----------------| 
Eb|--8-8-8-8---------||--0-0-0-0--------| 

(2x) 
eb|---------------------------------------------| 
Bb|---------------------------------------------| 
Gb|-----------9-/-9--/-12-\-7-----9-/-12-/-16---| 
Db|--5--4--0-------------------2----------------| 
Ab|--5--4--2--7-/-11-/-10-\-7--2--7-/-10-/-14---| 
Eb|--3--2--2-------------------0----------------|



Important: The song above is NOT stored on the Chordie server. The original song is hosted at www.xguitar.com. Chordie works as a search engine and provides on-the-fly formatting. Chordie does not index songs against artists'/composers' will. To remove this song please click here.

This song is displayed as text-only. Transposing and tuning is only available for chordpro-songs.

Login - add to songbook

Rating click stars to rate

Layout
Accuracy

SHARE PAGE  




You need to log in to post comments