Guitar Tabs, Chords and Lyrics


The Kennedy Curse    Alexisonfire



Alexisonfire - The Kennedy Curse
                          Tabbed entirely by: J@ck0

                     And when I say entirely it's ENTIRELY!!


 ---------------------------------------------------------
 ---------------------------------------------------------
 ---------------------------------------------------------
 ---------2-----2--------------6--------------------------  2X
 -------2---2---2------------6----6-----6-----------------
 ---0---------0-0----0-/-4----------4-4-4-4-4-------------

	-Distortion Open Here-

 ---------------------------------------
 ---------------------------------------
 ---------------------------------------
 ----6-6--2~~-------2-2--6~~------------
 ----6-6--2~~-------2-2--6~~------------
 ----4-4--0~~-------0-0--4~~------------

                                            7X
 ------------|--------------------------------|-----------
 ------------|*------------------------------*|-----------
 ------------|--------------------------------|-----------
 ------------|--------------------------------|-----------
 ------------|*------6-----7-----9-7-6-7~----*|------6----
 ----17-/-1--|--4-4---4-4---4-4---------------|--44----44-


 ---------------------------------------------------------
 ---------------------------------------------------------
 ---------------------------------------------------------
 ---------------------------------------------------------
 --7-----9-7-6~~---------6-66--7-77--9--9-99-7-77-6-66----
 ----4-4------------4-44-------------------------------4~-


 ---------------------------------------------------------
 ---------------------------------------------------------
 ---------------------------------------------------------
 --2222222--6666666---------------------------------------
 --2222222--6666666-------6-66--7-77--9--9-99-7-77-6-66---
 --0000000--4444444--4-44-------------------------------4-

 ---------------------------------------------------------
 ---------------------------------------------------------
 --------------------11-9-8-------------------------------
 --2222222--6666666--11-9-8-------------------------------
 --2222222--6666666--9--7-6-------------------------------
 --0000000--4444444---------------------------------------

 ----------------------------------    ----------------------------------
 ----------------------------------    ----------------------------------
 ----------------------------------    ----------------------------------
 ----------------------------------    ----------------------------------
 ---------------------------------- 7X ----------------------------------
 -------6-----7-----9-7-6-7--------    -------6-----7-----9-7-6~~~-------
 --4-4---4-4---4-4-----------------    --4-4---4-4---4-4-----------------

 --------------------------------------------------------------
 |       						      |
 | ---------------------------------------------------------  |
 | ---------------------------------------------------------  |
 | -------Harmonic at fret 7-~~~~~~~~~~~~~~~~~~~~~~~--------  |
 | ---------------------------------------------------------  |
 | ---------------------------------------------------------  |
 | ---------------------------------------------------------  |
 |             						      |
 |        During this riff the other guit plays: 	      |
 |							      |
 | ----14-11-12-11-12-11-12-11--        --14~~----  	      |
 | -----------------------------        ----------	      |
 | -----------------------------        ----------	      |
 | -----------------------------  14X   ----------	      |
 | -----------------------------        ----------	      |
 | -----------------------------        ----------     	      |
 |____________________________________________________________|


  **************************************
  * M=Muted   N=Not Muted  F=50% Muted *
  **************************************

   F  MMMMMMM   N  F  MMMMMMM
 ---------------------------------
 ---------------------------------
 ---------------------------------
 --2--000000----2--6--666666------  3X
 --2--222222----2--6--666666------
 --0--222222----0--4--444444------

   F  MMMMMMM   N  N
 ---------------------------
 ---------------------------
 ---------------------------
 --2--000000----2--6~~~-----
 --2--222222----2--6~~~-----
 --0--222222----0--4~~~-----

 -A Pick Slide (Up to DOwn)-

 ------------------------------------
 ------------------------------------
 ------------------------------------
 --22222222222-----666666666666------
 --22222222222-----666666666666------
 --00000000000-----444444444444------

 -----------------------------------------------------------
 |               					   |
 | ------------------------------------                    |
 | ------------------------------------                    |
 | ------------------------------------                    |
 | --22222222222-----666666666666------                    |
 | --22222222222-----666666666666------                    |
 | --00000000000-----444444444444------                    |
 |  							   |
 |                                                         |
 |         During this riff the other guit plays:          |
 | 							   |
 | ----14-11-12-11-12-11-12-11--        		   |
 | -----------------------------        	  	   |
 | -----------------------------        		   |
 | -----------------------------  8X   			   |
 | -----------------------------        		   |
 | -----------------------------        		   |
 |_________________________________________________________|


 -----------------------------------------------------------
 |   MMMMMMMMMMM     MMMMMMMMMMM         MMMMMMMMMMM       |
 | ----------------------------------------------------    |
 | ----------------------------------------------------    |
 | ----------------------------------------------------    |
 | --22222222222-----666666666666--------22222222222---    |
 | --22222222222-----666666666666--------22222222222---    |
 | --00000000000-----444444444444--------00000000000---    |
 | 							   |
 |    During this riff the other guit plays(at 2:55):      |
 | 							   |
 | ---14-11-12-11-12--------                  		   |
 | ------------------14-12--  				   |
 | -------------------------  				   |
 | -------------------------   6X       		   |
 | ------------------------- 				   |
 | -------------------------  				   |
 |_________________________________________________________|


 ------------------------------------
 ------------------------------------
 ------------------------------------
 --22222222222-----666666666666------  2X
 --22222222222-----666666666666------
 --00000000000-----444444444444------

	And The Ending:
 -------------------------------
 -------------------------------
 --11--9---8--------------------
 --11--9---8-----2~~~~----------
 --9---7---6-----2~~~~----------
 ----------------0~~~~----------

	--Distortion Close Here--


***********************************************************************************
***********************************************************************************
**                                LYRICS                                         **
***********************************************************************************
***********************************************************************************
**                                                                               **
** take this blood from my veins and paint me a masterpiece that tells the       **
** story of a parade. Kill their leader and watch his family die. The last man   **
** standing is a joke in spite of the glorious head shots and 8x10’s. the name   **
** does not live on. (thats all you get ***ers)                                 **
**                                                                               **
***********************************************************************************
***********************************************************************************



Important: The song above is NOT stored on the Chordie server. The original song is hosted at www.xguitar.com. Chordie works as a search engine and provides on-the-fly formatting. Chordie does not index songs against artists'/composers' will. To remove this song please click here.

This song is displayed as text-only. Transposing and tuning is only available for chordpro-songs.

Login - add to songbook

Rating click stars to rate

Layout
Accuracy

SHARE PAGE  




You need to log in to post comments